sea

Chords

01234567891011121314151617181920212223
E
B
G
D
A
E
B
0 1 2 3 4 5 6 7 8 9 10 11 12 13 14 15 16 17 18 19 20 21 22 23
(/) Slide Up  (\) Slide Down  (h) Hammer On  (p) Pull Off  (b) Bend (r) Release (v) Vibrato

Stave 1:

E|-----------------------------------------------------
B|---------9-------------------------------------------
G|-----10-----17--15p10p8h10--------------12h13p12\10--
D|------------------------------------13---------------
A|--8-------------------------11--15-------------------
E|-----------------------------------------------------

Stave 2:

E|-----------------------------
B|---------9-------------------
G|-----10---h17\15p10p8h10/13--
D|-----------------------------
A|--8--------------------------
E|-----------------------------

Stave 3:

E|------------------------------------
B|-------------13-------------11------
G|-----------------10-------------10--
D|---------10----------10h11----------
A|--10h11-----------------------------
E|------------------------------------

Stave 4:

E|-------------------------------------------------------------------------
B|---------------------------------4---------------------------------------
G|--8--------h12/13\12p8--5-----------5h6p5---------8----------13------17--
D|--10-----10-------------6-----6---------------10---------13--------------
A|--8---8-----------------4--4---------------8---------11----------13------
E|-------------------------------------------------------------------------

Stave 5:

E|--
B|--
G|--
D|--
A|--
E|--

							http://www.guitartabcreator.com
Instruments
{"title":"sea","strings":[[[".",".",".",".",".",".",".",".",".",".",".",".",".",".",".",".",".",".",".",".","."],[".",".",9,".",".",".",".",".",".",".",".",".",".",".",".",".",".",".",".",".","."],[".",10,".",17,15,"p",10,"p",8,"h",10,".",".",".",12,"h",13,"p",12,"\\",10],[".",".",".",".",".",".",".",".",".",".",".",".",".",13,".",".",".",".",".",".","."],[8,".",".",".",".",".",".",".",".",".",".",11,15,".",".",".",".",".",".",".","."],[".",".",".",".",".",".",".",".",".",".",".",".",".",".",".",".",".",".",".",".","."]],[[".",".",".",".",".",".",".",".",".",".",".",".",".",".","."],[".",".",9,".",".",".",".",".",".",".",".",".",".",".","."],[".",10,".","h",17,"\\",15,"p",10,"p",8,"h",10,"/",13],[".",".",".",".",".",".",".",".",".",".",".",".",".",".","."],[8,".",".",".",".",".",".",".",".",".",".",".",".",".","."],[".",".",".",".",".",".",".",".",".",".",".",".",".",".","."]],[[".",".",".",".",".",".",".",".",".",".","."],[".",".",".",".",13,".",".",".",".",11,"."],[".",".",".",".",".",10,".",".",".",".",10],[".",".",".",10,".",".",10,"h",11,".","."],[10,"h",11,".",".",".",".",".",".",".","."],[".",".",".",".",".",".",".",".",".",".","."]],[[".",".",".",".",".",".",".",".",".",".",".",".",".",".",".",".",".",".",".",".",".",".",".",".",".",".",".","."],[".",".",".",".",".",".",".",".",".",".",".",".",".",".",4,".",".",".",".",".",".",".",".",".",".",".",".","."],[8,".",".","h",12,"/",13,"\\",12,"p",8,5,".",".",".",5,"h",6,"p",5,".",".",8,".",".",13,".",17],[10,".",10,".",".",".",".",".",".",".",".",6,".",6,".",".",".",".",".",".",".",10,".",".",13,".",".","."],[8,8,".",".",".",".",".",".",".",".",".",4,4,".",".",".",".",".",".",".",8,".",".",11,".",".",13,"."],[".",".",".",".",".",".",".",".",".",".",".",".",".",".",".",".",".",".",".",".",".",".",".",".",".",".",".","."]],[[],[],[],[],[],[]]],"numberofstrings":6,"notes":["E","B","G","D","A","E","B"],"capo":0,"stringnotes":["E4","B3","G3","D3","A2","E2"],"comments":["Stave 1:","Stave 2:","Stave 3:","Stave 4:","Stave 5:"],"timing":[["W","W","W","W","W",null,"W",null,"W",null,"W","W","W","W","W",null,"W",null,"W","W","W"],["W","W","W","W","W",null,"W",null,"W",null,"W",null,"W",null,"W"],["W",null,"W","W","W","W","W",null,"W","W","W"],["W","W","W","W","W",null,"W",null,"W",null,"W","W","W","W","W","W",null,"W",null,"W","W","W","W","W","W","W","W","W","W"],[]],"timingvisible":false,"tabcounter":28,"stave":3,"totalstaves":5,"instrument":"6guitar","selectedtuning":"6_standard","version":"13"}

Member for

3 years 7 months
Submitted by runerool on Wed, 2018-04-25 08:25