SaucyAF

Chords

01234567891011121314151617181920212223
E
B
G
D
A
E
B
0 1 2 3 4 5 6 7 8 9 10 11 12 13 14 15 16 17 18 19 20 21 22 23
(/) Slide Up  (\) Slide Down  (h) Hammer On  (p) Pull Off  (b) Bend (r) Release (v) Vibrato

Stave 1:

E|-------------0----------------------------|--------0--------------13--12------------|--
B|--------3/5------------------------9------|-----5-----------------9-------10/13-----|--
G|-----2----------7/9---------5h7p5--9------|-----------7/9---------9-------9--12-----|--
D|---------------------7--10---------7------|--7-------------7--10--9-------11-14-----|--
A|-----------------------------------8------|-----------------------10----------------|--
E|-----1--------------------------------12--|--5-----------------------------------0--|--

Stave 2:

E|--------0------------------------------------------------15----------0----------5--|--
B|-----5------------------------------------5--------------15--17--18-------------5--|--
G|--2--------9---------5h7p5--12---------9-----7/9---------13------15-------------5--|--
D|--------------7--10---------9-------7-------------7--10--13------15----------------|--
A|----------------------------8----------------------------14------14----------------|--
E|--1-------------------------10--12--5-----------------------------------12--12-----|--

Stave 3:

E|---------------
B|---------------
G|------7h9--7v--
D|--10-----------
A|---------------
E|---------------

							http://www.guitartabcreator.com
Instruments
{"title":"SaucyAF","strings":[[["_",".",".",".",".",0,".",".",".",".",".",".",".",".",".",".",".",".","|",".",".",0,".",".",".",".",".",13,12,".",".",".",".","|"],["_",".",3,"/",5,".",".",".",".",".",".",".",".",".",".",".",9,".","|",".",5,".",".",".",".",".",".",9,".",10,"/",13,".","|"],["_",2,".",".",".",".",7,"/",9,".",".",5,"h",7,"p",5,9,".","|",".",".",".",7,"/",9,".",".",9,".",9,".",12,".","|"],["_",".",".",".",".",".",".",".",".",7,10,".",".",".",".",".",7,".","|",7,".",".",".",".",".",7,10,9,".",11,".",14,".","|"],["_",".",".",".",".",".",".",".",".",".",".",".",".",".",".",".",8,".","|",".",".",".",".",".",".",".",".",10,".",".",".",".",".","|"],["_",1,".",".",".",".",".",".",".",".",".",".",".",".",".",".",".",12,"|",5,".",".",".",".",".",".",".",".",".",".",".",".",0,"|"]],[[".",".",0,".",".",".",".",".",".",".",".",".",".",".",".",".",".",".",".",".",".",15,".",".",0,".",".",5,"|"],[".",5,".",".",".",".",".",".",".",".",".",".",".",".",".",5,".",".",".",".",".",15,17,18,".",".",".",5,"|"],[2,".",".",9,".",".",5,"h",7,"p",5,12,".",".",9,".",7,"/",9,".",".",13,".",15,".",".",".",5,"|"],[".",".",".",".",7,10,".",".",".",".",".",9,".",7,".",".",".",".",".",7,10,13,".",15,".",".",".",".","|"],[".",".",".",".",".",".",".",".",".",".",".",8,".",".",".",".",".",".",".",".",".",14,".",14,".",".",".",".","|"],[1,".",".",".",".",".",".",".",".",".",".",10,12,5,".",".",".",".",".",".",".",".",".",".",".",12,12,".","|"]],[[".",".",".",".",".","."],[".",".",".",".",".","."],[".",7,"h",9,7,"v"],[10,".",".",".",".","."],[".",".",".",".",".","."],[".",".",".",".",".","."]]],"numberofstrings":6,"notes":["E","B","G","D","A","E","B"],"capo":0,"stringnotes":["E4","B3","G3","D3","A2","E2"],"comments":["Stave 1:","Stave 2:","Stave 3:"],"timing":[[null,"W","W",null,"W","W","W",null,"W","W","W","W","W","W","W","W","W","W","W","W","W","W","W","W","W","W","W","W","W","W",null,"W","W"],["W","W","W","W","W","W","W",null,"W",null,"W","W","W","W","W","W","W",null,"W","W","W","W","W","W","W","W","W","W","W"],["W","W",null,"W","W"]],"timingvisible":false,"tabcounter":6,"stave":2,"totalstaves":3,"instrument":"6guitar","selectedtuning":"6_standard","version":"13"}

Member for

3 years 7 months
Submitted by runerool on Sun, 2018-10-14 15:09