saucy

Chords

01234567891011121314151617181920212223
E
B
G
D
A
E
B
0 1 2 3 4 5 6 7 8 9 10 11 12 13 14 15 16 17 18 19 20 21 22 23
(/) Slide Up  (\) Slide Down  (h) Hammer On  (p) Pull Off  (b) Bend (r) Release (v) Vibrato

Stave 1:

E|-----0-------------------------------8--0---------------13--12----------------0--------------------------------
B|--------5---------------------9--12--8-----5------------9-------10--13-----------5-----------------------------
G|--2--------9---------5--7--5--9--12-----------9---------9-------9---12-----2--------9---------5--7--5--12------
D|--3-----------7--10-----------6------7-----------7--10--9-------11--14-----3-----------7--10-----------9-------
A|------------------------------7-------------------------10---------------------------------------------8-------
E|--1----------------------------------5----------------------------------0--1---------------------------10--12--

Stave 2:

E|--8--0---------------15--17--------------------------------------------------------------------------------
B|--8-----5------------15--17--15------------5--------------6--12--13---------------------------------12-----
G|-----------9---------15--15--15-----2------5------7h9--7--5--12--14-----------------------1--9--10---------
D|--7-----------7--10--14--14--15-----3------5--------------6-------------7--------2-------------------------
A|---------------------13--13--13---------------10----------7--12--12--------3--------2--3-------------------
E|--5------------------------------0--1--12----------------------------5--------5-------------------------0--

Stave 3:

E|-----0------------------------
B|--------5---------------------
G|--2--------9---------5--7--5--
D|--3-----------7--10-----------
A|------------------------------
E|--1---------------------------

							http://www.guitartabcreator.com
Instruments
{"title":"saucy","strings":[[[".",0,".",".",".",".",".",".",".",".",".",8,0,".",".",".",".",13,12,".",".",".",".",0,".",".",".",".",".",".",".",".","."],[".",".",5,".",".",".",".",".",".",9,12,8,".",5,".",".",".",9,".",10,13,".",".",".",5,".",".",".",".",".",".",".","."],[2,".",".",9,".",".",5,7,5,9,12,".",".",".",9,".",".",9,".",9,12,".",2,".",".",9,".",".",5,7,5,12,"."],[3,".",".",".",7,10,".",".",".",6,".",7,".",".",".",7,10,9,".",11,14,".",3,".",".",".",7,10,".",".",".",9,"."],[".",".",".",".",".",".",".",".",".",7,".",".",".",".",".",".",".",10,".",".",".",".",".",".",".",".",".",".",".",".",".",8,"."],[1,".",".",".",".",".",".",".",".",".",".",5,".",".",".",".",".",".",".",".",".",0,1,".",".",".",".",".",".",".",".",10,12]],[[8,0,".",".",".",".",15,17,".",".",".",".",".",".",".",".",".",".",".",".",".",".",".",".",".",".",".",".",".",".",".",".","."],[8,".",5,".",".",".",15,17,15,".",".",".",5,".",".",".",".",".",6,12,13,".",".",".",".",".",".",".",".",".",".",12,"."],[".",".",".",9,".",".",15,15,15,".",2,".",5,".",7,"h",9,7,5,12,14,".",".",".",".",".",".",".",1,9,10,".","."],[7,".",".",".",7,10,14,14,15,".",3,".",5,".",".",".",".",".",6,".",".",".",7,".",".",2,".",".",".",".",".",".","."],[".",".",".",".",".",".",13,13,13,".",".",".",".",10,".",".",".",".",7,12,12,".",".",3,".",".",2,3,".",".",".",".","."],[5,".",".",".",".",".",".",".",".",0,1,12,".",".",".",".",".",".",".",".",".",5,".",".",5,".",".",".",".",".",".",".",0]],[[".",0,".",".",".",".",".",".","."],[".",".",5,".",".",".",".",".","."],[2,".",".",9,".",".",5,7,5],[3,".",".",".",7,10,".",".","."],[".",".",".",".",".",".",".",".","."],[1,".",".",".",".",".",".",".","."]]],"numberofstrings":6,"notes":["E","B","G","D","A","E","B"],"capo":0,"stringnotes":["E4","B3","G3","D3","A2","E2"],"comments":["Stave 1:","Stave 2:","Stave 3:"],"timing":[["W","W","W","W","W","W","W","W","W","W","W","W","W","W","W","W","W","W","W","W","W","W","W","W","W","W","W","W","W","W","W","W","W"],["W","W","W","W","W","W","W","W","W","W","W","W","W","W","W",null,"W","W","W","W","W","W","W","W","W","W","W","W","W","W","W","W","W"],["W","W","W","W","W","W","W","W","W"]],"timingvisible":false,"tabcounter":9,"stave":2,"totalstaves":3,"instrument":"6guitar","selectedtuning":"6_standard","version":"13"}

Member for

3 years 7 months
Submitted by runerool on Thu, 2018-10-25 06:11