Possible song

Chords

01234567891011121314151617181920212223
E
B
G
D
A
E
B
0 1 2 3 4 5 6 7 8 9 10 11 12 13 14 15 16 17 18 19 20 21 22 23
(/) Slide Up  (\) Slide Down  (h) Hammer On  (p) Pull Off  (b) Bend (r) Release (v) Vibrato

Stave 1:

E|--------------------------------------------------------------------------------------------------------
B|--------------------------------------------------------------------------------------------------------
G|----------------------------------9------------------------------12------10-----------------------------
D|-----10--9--7-------------9h10p9-----9h10p9----------10--12--14------14------14--12h14p12h16p14p12--12--
A|---------------10---------------------------------------------------------------------------------------
E|--8----------------10------------------------13--12-----------------------------------------------------

Stave 2:

E|---------
B|---------
G|---------
D|---------
A|---------
E|--10--8--

Stave 3:

E|-----------------------
B|-----------------------
G|--17p10----------------
D|---------14p10--15\14--
A|-----------------------
E|-----------------------

							http://www.guitartabcreator.com
Instruments
{"title":"","strings":[[[".",".",".",".",".",".","_",".",".",".",".",".",".",".",".",".",".",".",".",".",".",".",".",".",".",".",".",".",".",".",".",".",".",".",".",".",".",".","."],[".",".",".",".",".",".","_",".",".",".",".",".",".",".",".",".",".",".",".",".",".",".",".",".",".",".",".",".",".",".",".",".",".",".",".",".",".",".","."],[".",".",".",".",".",".","_",".",".",".",".",".",9,".",".",".",".",".",".",".",".",".",".",12,".",10,".",".",".",".",".",".",".",".",".",".",".",".","."],[".",10,9,7,".",".","_",9,"h",10,"p",9,".",9,"h",10,"p",9,".",".",10,12,14,".",14,".",14,12,"h",14,"p",12,"h",16,"p",14,"p",12,12],[".",".",".",".",10,".","_",".",".",".",".",".",".",".",".",".",".",".",".",".",".",".",".",".",".",".",".",".",".",".",".",".",".",".",".",".",".",".","."],[8,".",".",".",".",10,"_",".",".",".",".",".",".",".",".",".",".",".",13,12,".",".",".",".",".",".",".",".",".",".",".",".",".",".",".",".",".",".","."]],[[".","."],[".","."],[".","."],[".","."],[".","."],[10,8]],[[".",".",".",".",".",".",".",".","."],[".",".",".",".",".",".",".",".","."],[17,"p",10,".",".",".",".",".","."],[".",".",".",14,"p",10,15,"\\",14],[".",".",".",".",".",".",".",".","."],[".",".",".",".",".",".",".",".","."]]],"numberofstrings":6,"notes":["E","B","G","D","A","E","B"],"capo":0,"stringnotes":["E4","B3","G3","D3","A2","E2"],"comments":["Stave 1:","Stave 2:","Stave 3:"],"timing":[["W","W","W","W","W","W",null,"W",null,"W",null,"W","W","W",null,"W",null,"W","W","W","W","W","W","W","W","W","W","W",null,"W",null,"W","W","W",null,"W",null,"W","W","W","W"],["W","W"],["W",null,"W","W",null,"W","W","W","W"]],"timingvisible":false,"tabcounter":9,"stave":2,"totalstaves":3,"instrument":"6guitar","selectedtuning":"6_standard","version":"13"}

Member for

3 years 7 months
Submitted by runerool on Sat, 2017-12-16 03:54