Polyphia - G.O.A.T. (full tab I guess)

Chords

01234567891011121314151617181920212223
E
B
G
D
A
E
B
0 1 2 3 4 5 6 7 8 9 10 11 12 13 14 15 16 17 18 19 20 21 22 23
(/) Slide Up  (\) Slide Down  (h) Hammer On  (p) Pull Off  (b) Bend (r) Release (v) Vibrato

Stave 1:

E|-------------------------------0-----
B|-------------h19p0--12------------7--
G|-----16h19p16-----------14\11--------
D|-----12------------------------------
A|-----14------------------------------
E|-------------------------------------

Stave 2:

E|-------------------7----|----------------------0--5--7--|--------------------0-----------|-----
B|-----------0-------7----|-------------------7-----5--7--|-----------0--------0--0--------|-----
G|-----0-------------7----|--------0----------------5--7--|--6-----------0-----0-----0-----|-----
D|--------3---------------|-----------2/4-----------------|-----4-----------4--4--------4--|-----
A|--1---------------------|--2--4-------------------------|--------7-----------------------|--7--
E|--------------3p2-----7\|----------------6--------------|--------------------------------|-----

Stave 3:

E|----------------------------------|--
B|--------0--------0--------0-------|--
G|-----6----------------------------|--
D|--------------9--------8----------|--
A|--9--------7--------5-------------|--
E|-----------------------------6--7\|--

							http://www.guitartabcreator.com
Instruments
{"title":"Polyphia - G.O.A.T. (full tab I guess)","strings":[[[".",".",".",".",".",".",".",".",".",".",".",".",".",".",0,"."],[".",".",".",".",".",".","h",19,"p",0,12,".",".",".",".",7],[".",16,"h",19,"p",16,".",".",".",".",".",14,"\\",11,".","."],[".",12,".",".",".",".",".",".",".",".",".",".",".",".",".","."],[".",14,".",".",".",".",".",".",".",".",".",".",".",".",".","."],[".",".",".",".",".",".",".",".",".",".",".",".",".",".",".","."]],[[".",".",".",".",".",".",".",7,".",".","|",".",".",".",".",".",".",".",".",0,5,7,"|",".",".",".",".",".",".",0,".",".",".","|","."],[".",".",".",0,".",".",".",7,".",".","|",".",".",".",".",".",".",".",7,".",5,7,"|",".",".",".",0,".",".",0,0,".",".","|","."],[".",0,".",".",".",".",".",7,".",".","|",".",".",0,".",".",".",".",".",".",5,7,"|",6,".",".",".",0,".",0,".",0,".","|","."],[".",".",3,".",".",".",".",".",".",".","|",".",".",".",2,"/",4,".",".",".",".",".","|",".",4,".",".",".",4,4,".",".",4,"|","."],[1,".",".",".",".",".",".",".",".",".","|",2,4,".",".",".",".",".",".",".",".",".","|",".",".",7,".",".",".",".",".",".",".","|",7],[".",".",".",".",3,"p",2,".",7,"\\","|",".",".",".",".",".",".",6,".",".",".",".","|",".",".",".",".",".",".",".",".",".",".","|","."]],[[".",".",".",".",".",".",".",".",".",".",".",".","|"],[".",".",0,".",".",0,".",".",0,".",".",".","|"],[".",6,".",".",".",".",".",".",".",".",".",".","|"],[".",".",".",".",9,".",".",8,".",".",".",".","|"],[9,".",".",7,".",".",5,".",".",".",".",".","|"],[".",".",".",".",".",".",".",".",".",6,7,"\\","|"]]],"numberofstrings":6,"notes":["E","B","G","D","A","E","B"],"capo":0,"stringnotes":["E4","B3","G3","D3","A2","E2"],"comments":["Stave 1:","Stave 2:","Stave 3:"],"timing":[[null,"W","W","W",null,"W","W","W",null,"W","W","W","W","W","W","W"],["W","W","W","W","W",null,"W","W","W","W",null,"W","W","W","W","W","W","W","W","W","W","W","W","W","W","W","W","W","W","W","W","W","W",null,"W"],["W","W","W","W","W","W","W","W","W","W","W"]],"timingvisible":false,"tabcounter":13,"stave":2,"totalstaves":3,"instrument":"6guitar","selectedtuning":"6_standard","version":"13"}

Member for

3 years 7 months
Submitted by runerool on Wed, 2018-08-08 06:22