Polyphia- Finale

Chords

01234567891011121314151617181920212223
E
B
G
D
A
E
B
0 1 2 3 4 5 6 7 8 9 10 11 12 13 14 15 16 17 18 19 20 21 22 23
(/) Slide Up  (\) Slide Down  (h) Hammer On  (p) Pull Off  (b) Bend (r) Release (v) Vibrato

Stave 1:

E|-------------------------------------------------------------------------------------------
B|-------------------------------------------------------------------8--------------------0--
G|-----------7--------------7-------------------7--------------7--------7-----------7--------
D|--------5-----5--------5-----5--7/9--------5-----5--------5-----5--------------5-----5-----
A|-----7--------------7-------------------7--------------7--------------------3--------------
D|-------------------------------------------------------------------------------------------

Stave 2:

E|------------------------------------------------------------------------------------------------------
B|----------------------------------0-----------------9\8--------17--15---------------------------------
G|--------7-------------------7-----------------7------------------------14--------------14--14h16------
D|-----5-----5-------------5-----5-----------5-----5-------------------------17--14--17-------------14--
A|--3-----------7/9-----3-----------------3-------------------------------------------------------------
D|------------------------------------------------------------------------------------------------------

Stave 3:

E|----------------------------------------------------------------------
B|----------------------------------------------------------------------
G|---------12--14/16--14--12--12h14p12----------------------------------
D|--12h14-------------------------------14--12--14--9--9--5-------------
A|-----------------------------------------------------------7-----5h7--
D|----------------------------------------------------------------------

							http://www.guitartabcreator.com
Instruments
{"title":"Polyphia- Finale","strings":[[[".",".",".",".",".","_",".",".",".",".",".",".",".","_",".",".",".",".","_",".",".",".",".",".",".","_",".",".",".",".","."],[".",".",".",".",".","_",".",".",".",".",".",".",".","_",".",".",".",".","_",".",".",".",".",8,".","_",".",".",".",".",0],[".",".",".",7,".","_",".",".",7,".",".",".",".","_",".",".",7,".","_",".",".",7,".",".",7,"_",".",".",7,".","."],[".",".",5,".",5,"_",".",5,".",5,7,"/",9,"_",".",5,".",5,"_",".",5,".",5,".",".","_",".",5,".",5,"."],[".",7,".",".",".","_",7,".",".",".",".",".",".","_",7,".",".",".","_",7,".",".",".",".",".","_",3,".",".",".","."],[".",".",".",".",".","_",".",".",".",".",".",".",".","_",".",".",".",".","_",".",".",".",".",".",".","_",".",".",".",".","."]],[[".",".",".",".",".",".",".","_",".",".",".",".",".","_",".",".",".",".",".",".",".","_","_",".",".",".",".",".",".",".",".",".",".","."],[".",".",".",".",".",".",".","_",".",".",".",".",0,"_",".",".",".",".",9,"\\",8,"_","_",17,15,".",".",".",".",".",".",".",".","."],[".",".",7,".",".",".",".","_",".",".",7,".",".","_",".",".",7,".",".",".",".","_","_",".",".",14,".",".",".",14,14,"h",16,"."],[".",5,".",5,".",".",".","_",".",5,".",5,".","_",".",5,".",5,".",".",".","_","_",".",".",".",17,14,17,".",".",".",".",14],[3,".",".",".",7,"/",9,"_",3,".",".",".",".","_",3,".",".",".",".",".",".","_","_",".",".",".",".",".",".",".",".",".",".","."],[".",".",".",".",".",".",".","_",".",".",".",".",".","_",".",".",".",".",".",".",".","_","_",".",".",".",".",".",".",".",".",".",".","."]],[[".",".",".",".",".",".",".",".",".",".",".",".",".",".",".",".",".",".",".",".",".","_",".",".","."],[".",".",".",".",".",".",".",".",".",".",".",".",".",".",".",".",".",".",".",".",".","_",".",".","."],[".",".",".",12,14,"/",16,14,12,12,"h",14,"p",12,".",".",".",".",".",".",".","_",".",".","."],[12,"h",14,".",".",".",".",".",".",".",".",".",".",".",14,12,14,9,9,5,".","_",".",".","."],[".",".",".",".",".",".",".",".",".",".",".",".",".",".",".",".",".",".",".",".",7,"_",5,"h",7],[".",".",".",".",".",".",".",".",".",".",".",".",".",".",".",".",".",".",".",".",".","_",".",".","."]]],"numberofstrings":6,"notes":["E","B","G","D","A","D"],"capo":0,"stringnotes":["E3","B2","G2","D2","A1","D1"],"comments":["Stave 1:","Stave 2:","Stave 3:"],"timing":[[null,"W","W","W","W","W","W","W","W","W","W","W","W",null,"W","W","W","W",null,"W","W","W","W","W","W",null,"W","W","W","W","W",null,"W","W","W","W"],["W","W","W","W","W",null,"W",null,"W","W","W","W","W",null,"W","W","W","W","W",null,"W","W","W","W","W","W","W","W","W","W","W",null,"W","W"],["W","W","W","W","W",null,"W","W","W","W",null,"W",null,"W","W","W","W","W","W","W","W","W","W","W","W"]],"timingvisible":false,"tabcounter":25,"stave":2,"totalstaves":3,"instrument":"6guitar","selectedtuning":"6_standard","version":"13"}

Member for

3 years 7 months
Submitted by runerool on Thu, 2018-07-19 10:25