never meant to hurt you

Chords

01234567891011121314151617181920212223
E
B
G
D
A
E
B
0 1 2 3 4 5 6 7 8 9 10 11 12 13 14 15 16 17 18 19 20 21 22 23
(/) Slide Up  (\) Slide Down  (h) Hammer On  (p) Pull Off  (b) Bend (r) Release (v) Vibrato

Stave 1:

E|---------------------------------------------------------------------------------------------------
B|--------8---h15p8h13p8-----------0-----0h1p0--1/3--------0-----------0h3p0--------0--------12------
G|-----0-----0------------------0-----0-----------------0-----0-----0------------0-----0--5------12--
D|---------------------------------------------------------------------------------------------------
A|--7------------------------5-----------------------3-----------3------------3----------------------
E|---------------------------------------------------------------------------------------------------

Stave 2:

E|----------------------------------------------------------
B|--------8---h17p8h15/17--------8-----h13p10-----h12/14p8--
G|-----0-----0----------------0-----------------------------
D|----------------------------------------------------------
A|--7----------------------9--------------------------------
E|----------------------------------------------------------

							http://www.guitartabcreator.com
Instruments
{"title":"never meant to hurt you","strings":[[[".",".",".",".",".",".",".",".",".",".",".",".","_",".",".",".",".",".",".",".",".",".",".",".",".",".",".",".",".",".",".",".",".",".",".",".",".",".",".",".",".",".","."],[".",".",8,".","h",15,"p",8,"h",13,"p",8,"_",".",".",0,".",0,"h",1,"p",0,1,"/",3,".",".",0,".",".",".",0,"h",3,"p",0,".",".",0,".",".",12,"."],[".",0,".",0,".",".",".",".",".",".",".",".","_",".",0,".",0,".",".",".",".",".",".",".",".",".",0,".",0,".",0,".",".",".",".",".",".",0,".",0,5,".",12],[".",".",".",".",".",".",".",".",".",".",".",".","_",".",".",".",".",".",".",".",".",".",".",".",".",".",".",".",".",".",".",".",".",".",".",".",".",".",".",".",".",".","."],[7,".",".",".",".",".",".",".",".",".",".",".","_",5,".",".",".",".",".",".",".",".",".",".",".",3,".",".",".",3,".",".",".",".",".",".",3,".",".",".",".",".","."],[".",".",".",".",".",".",".",".",".",".",".",".","_",".",".",".",".",".",".",".",".",".",".",".",".",".",".",".",".",".",".",".",".",".",".",".",".",".",".",".",".",".","."]],[[".",".",".",".",".",".",".",".",".",".",".",".",".",".",".","_",".",".",".",".","_",".",".",".",".",".","."],[".",".",8,".","h",17,"p",8,"h",15,"/",17,".",".",8,"_","h",13,"p",10,"_","h",12,"/",14,"p",8],[".",0,".",0,".",".",".",".",".",".",".",".",".",0,".","_",".",".",".",".","_",".",".",".",".",".","."],[".",".",".",".",".",".",".",".",".",".",".",".",".",".",".","_",".",".",".",".","_",".",".",".",".",".","."],[7,".",".",".",".",".",".",".",".",".",".",".",9,".",".","_",".",".",".",".","_",".",".",".",".",".","."],[".",".",".",".",".",".",".",".",".",".",".",".",".",".",".","_",".",".",".",".","_",".",".",".",".",".","."]]],"numberofstrings":6,"notes":["E","B","G","D","A","E","B"],"capo":0,"stringnotes":["E4","B3","G3","D3","A2","E2"],"comments":["Stave 1:","Stave 2:"],"timing":[["W","W","W","W","W","W",null,"W",null,"W",null,"W",null,"W","W","W","W","W","W","W",null,"W","W",null,"W","W","W","W","W","W","W","W","W","W","W","W","W","W","W","W","W","W","W"],["W","W","W","W","W","W","W","W",null,"W",null,"W","W","W","W",null,null,"W",null,"W","W","W","W",null,"W",null,"W"]],"timingvisible":false,"tabcounter":43,"stave":0,"totalstaves":2,"instrument":"6guitar","selectedtuning":"6_standard","version":"13"}

Member for

3 years 7 months
Submitted by runerool on Sun, 2018-05-27 13:09