Mountains

Chords

01234567891011121314151617181920212223
E
B
G
D
A
E
B
0 1 2 3 4 5 6 7 8 9 10 11 12 13 14 15 16 17 18 19 20 21 22 23
(/) Slide Up  (\) Slide Down  (h) Hammer On  (p) Pull Off  (b) Bend (r) Release (v) Vibrato

Stave 1:

E|--2-----------------------------|-----------2-----------------|--------2h4--6--6--
B|-----7------h14p7--------h11p7--|--------2-----2---h14\12/11--|-------------------
G|-----------6--------h13p6-------|--------3--------4-----------|-------------------
D|--------8--------h13------------|-----4-----4-----------------|-----4-------------
A|--------------------------------|-----------2-----------------|--2----------------
E|--7-----------------------------|--2--------------------------|-------------------

Stave 2:

E|----------------------2-----------------------------------------------------------------------------------------------------
B|--11h12p11--7h9p7--4-----2-------------12--11--9-------------14--11---------------------------------------------------------
G|------------------------------------6-------------11--10h11----------11p10p8------------------------------------------------
D|--11--------9------4-----------6/8--------------------------------------------11--8---------11/13--11--8--8-----8h9p8--4h6--
A|----------------------------4--------------------------------------------------------11--9----------------------------------
E|----------------------------------------------------------------------------------------------------------------------------

Stave 3:

E|-----
B|-----
G|-----
D|-----
A|-----
E|--2--

							http://www.guitartabcreator.com
Instruments
{"title":"Mountains","strings":[[[2,".",".",".",".",".",".",".",".",".",".",".",".",".",".",".",".",".","|",".",".",".",2,".",".",".",".",".",".",".",".","|",".",".",2,"h",4,6,6],[".",7,".",".","h",14,"p",7,".",".",".",".",".",".","h",11,"p",7,"|",".",".",2,".",2,".","h",14,"\\",12,"/",11,"|",".",".",".",".",".",".","."],[".",".",".",6,".",".",".",".",".",".","h",13,"p",6,".",".",".",".","|",".",".",3,".",".",4,".",".",".",".",".",".","|",".",".",".",".",".",".","."],[".",".",8,".",".",".",".",".","h",13,".",".",".",".",".",".",".",".","|",".",4,".",4,".",".",".",".",".",".",".",".","|",".",4,".",".",".",".","."],[".",".",".",".",".",".",".",".",".",".",".",".",".",".",".",".",".",".","|",".",".",".",2,".",".",".",".",".",".",".",".","|",2,".",".",".",".",".","."],[7,".",".",".",".",".",".",".",".",".",".",".",".",".",".",".",".",".","|",2,".",".",".",".",".",".",".",".",".",".",".","|",".",".",".",".",".",".","."]],[[".",".",".",".",".",".",".",".",".",".",".",2,".",".",".",".",".",".",".",".",".",".",".",".",".",".",".",".",".",".",".",".",".",".",".",".",".",".",".",".",".",".","_",".",".",".",".",".",".",".","."],[11,"h",12,"p",11,7,"h",9,"p",7,4,".",2,".",".",".",".",".",12,11,9,".",".",".",".",14,11,".",".",".",".",".",".",".",".",".",".",".",".",".",".",".","_",".",".",".",".",".",".",".","."],[".",".",".",".",".",".",".",".",".",".",".",".",".",".",".",".",".",6,".",".",".",11,10,"h",11,".",".",11,"p",10,"p",8,".",".",".",".",".",".",".",".",".",".","_",".",".",".",".",".",".",".","."],[11,".",".",".",".",9,".",".",".",".",4,".",".",".",6,"/",8,".",".",".",".",".",".",".",".",".",".",".",".",".",".",".",11,8,".",".",11,"/",13,11,8,8,"_",8,"h",9,"p",8,4,"h",6],[".",".",".",".",".",".",".",".",".",".",".",".",".",4,".",".",".",".",".",".",".",".",".",".",".",".",".",".",".",".",".",".",".",".",11,9,".",".",".",".",".",".","_",".",".",".",".",".",".",".","."],[".",".",".",".",".",".",".",".",".",".",".",".",".",".",".",".",".",".",".",".",".",".",".",".",".",".",".",".",".",".",".",".",".",".",".",".",".",".",".",".",".",".","_",".",".",".",".",".",".",".","."]],[["."],["."],["."],["."],["."],[2]]],"numberofstrings":6,"notes":["E","B","G","D","A","E","B"],"capo":0,"stringnotes":["E4","B3","G3","D3","A2","E2"],"comments":["Stave 1:","Stave 2:","Stave 3:"],"timing":[["W","W","W","W","W","W",null,"W","W","W","W","W",null,"W","W","W",null,"W",null,"W","W","W","W","W","W","W","W",null,"W",null,"W",null,"W","W","W",null,"W","W","W","W"],["W","W","W",null,"W","W","W","W",null,"W","W","W","W","W","W",null,"W","W","W","W","W","W","W",null,"W","W","W","W",null,"W",null,"W","W","W","W","W","W",null,"W","W","W","W",null,"W",null,"W",null,"W","W",null,"W"],["W"]],"timingvisible":false,"tabcounter":1,"stave":2,"totalstaves":3,"instrument":"6guitar","selectedtuning":"6_standard","version":"13"}

Member for

3 years 7 months
Submitted by runerool on Tue, 2018-07-24 06:02