Modest house - Third planet

Chords

01234567891011121314151617181920212223
E
B
G
D
A
E
B
0 1 2 3 4 5 6 7 8 9 10 11 12 13 14 15 16 17 18 19 20 21 22 23
(/) Slide Up  (\) Slide Down  (h) Hammer On  (p) Pull Off  (b) Bend (r) Release (v) Vibrato

Stave 1:

E|-----------------------------------------------------------------
B|-----------------------------------------------------------------
G|---------8-------------8-------------8---------------------------
D|--9-------------9-------------9-------------9h10p9h10p9h10p9h10--
A|-----10-----10-----10-----10-----10-----10-----------------------
E|-----------------------------------------------------------------

Stave 2:

E|--------------------------------------
B|--------------------------------------
G|----------------------------------12--
D|--9------9h10--10p9--9----------------
A|-----10-----------------10------------
E|--------------------------------------

Stave 3:

E|--
B|--
G|--
D|--
A|--
E|--

Stave 4:

E|-------------
B|--10--10--8--
G|--0---0---0--
D|--9---0---0--
A|--10--9---7--
E|------10--8--

Stave 5:

E|----------------------------------------------------------
B|----------------------------------------------------------
G|----------------------------------------------------------
D|------9--7--9--------------------------------------9--10--
A|--10---------------9--10--7--5-----7--10--7-----7---------
E|---------------10---------------7------------8------------

							http://www.guitartabcreator.com
Instruments
{"title":"Modest house - Third planet","strings":[[[".",".",".",".",".",".",".",".",".",".",".",".",".",".",".",".",".",".",".",".",".",".",".",".",".",".","."],[".",".",".",".",".",".",".",".",".",".",".",".",".",".",".",".",".",".",".",".",".",".",".",".",".",".","."],[".",".",8,".",".",".",8,".",".",".",8,".",".",".",".",".",".",".",".",".",".",".",".",".",".",".","."],[9,".",".",".",9,".",".",".",9,".",".",".",9,"h",10,"p",9,"h",10,"p",9,"h",10,"p",9,"h",10],[".",10,".",10,".",10,".",10,".",10,".",10,".",".",".",".",".",".",".",".",".",".",".",".",".",".","."],[".",".",".",".",".",".",".",".",".",".",".",".",".",".",".",".",".",".",".",".",".",".",".",".",".",".","."]],[[".",".",".",".",".",".",".",".",".",".","_","_","."],[".",".",".",".",".",".",".",".",".",".","_","_","."],[".",".",".",".",".",".",".",".",".",".","_","_",12],[9,".",9,"h",10,10,"p",9,9,".","_","_","."],[".",10,".",".",".",".",".",".",".",10,"_","_","."],[".",".",".",".",".",".",".",".",".",".","_","_","."]],[[],[],[],[],[],[]],[[".",".","."],[10,10,8],[0,0,0],[9,0,0],[10,9,7],[".",10,8]],[[".",".",".",".",".",".",".",".",".",".",".",".",".",".",".",".","."],[".",".",".",".",".",".",".",".",".",".",".",".",".",".",".",".","."],[".",".",".",".",".",".",".",".",".",".",".",".",".",".",".",".","."],[".",9,7,9,".",".",".",".",".",".",".",".",".",".",".",9,10],[10,".",".",".",".",9,10,7,5,".",7,10,7,".",7,".","."],[".",".",".",".",10,".",".",".",".",7,".",".",".",8,".",".","."]]],"numberofstrings":6,"notes":["E","B","G","D","A","E","B"],"capo":0,"stringnotes":["E4","B3","G3","D3","A2","E2"],"comments":["Stave 1:","Stave 2:","Stave 3:","Stave 4:","Stave 5:"],"timing":[["W","W","W","W","W","W","W","W","W","W","W","W","W",null,"W",null,"W",null,"W",null,"W",null,"W",null,"W",null,"W"],["W","W","W","W","W","W",null,"W","W","W","W",null,"W","W",null,"W"],["W","W","W","W","W","W","W","W","W","W"],["W","W","W","W","W","W"],["W","W","W","W","W","W","W","W","W","W","W","W","W","W","W","W","W","W"]],"timingvisible":false,"tabcounter":2,"stave":3,"totalstaves":5,"instrument":"6guitar","selectedtuning":"6_standard","version":"13"}

Member for

3 years 7 months
Submitted by runerool on Thu, 2017-12-28 04:23