misguided ghosts

Chords

01234567891011121314151617181920212223
E
B
G
D
A
E
B
0 1 2 3 4 5 6 7 8 9 10 11 12 13 14 15 16 17 18 19 20 21 22 23
(/) Slide Up  (\) Slide Down  (h) Hammer On  (p) Pull Off  (b) Bend (r) Release (v) Vibrato

Stave 1:

E|------------------------------------------------------------------------------------------------
B|------------------------------------------------------------------------------------------------
G|-------------2-----------------2-------------------0-----------------0--------------------------
D|-----0h2--------2--------0--------2--------0h2--------2--------0--------0--------5-----5--------
A|------------------------------------------------------------------------------------------0-----
E|-----1----1--------1-----1--1--------1-----3----3--------3-----3--3--------3-----0--0--------0--

Stave 2:

E|-------------------
B|-------------------
G|----------0--------
D|--0h2--------2-----
A|-------------------
E|--0----0--------0--

							http://www.guitartabcreator.com
Instruments
{"title":"misguided ghosts","strings":[[["_",".",".",".",".",".",".",".","_",".",".",".",".",".","_",".",".",".",".",".",".",".","_",".",".",".",".",".","_",".",".",".",".","."],["_",".",".",".",".",".",".",".","_",".",".",".",".",".","_",".",".",".",".",".",".",".","_",".",".",".",".",".","_",".",".",".",".","."],["_",".",".",".",".",2,".",".","_",".",".",2,".",".","_",".",".",".",".",0,".",".","_",".",".",0,".",".","_",".",".",".",".","."],["_",0,"h",2,".",".",2,".","_",0,".",".",2,".","_",0,"h",2,".",".",2,".","_",0,".",".",0,".","_",5,".",5,".","."],["_",".",".",".",".",".",".",".","_",".",".",".",".",".","_",".",".",".",".",".",".",".","_",".",".",".",".",".","_",".",".",".",0,"."],["_",1,".",".",1,".",".",1,"_",1,1,".",".",1,"_",3,".",".",3,".",".",3,"_",3,3,".",".",3,"_",0,0,".",".",0]],[[".",".",".",".",".",".","."],[".",".",".",".",".",".","."],[".",".",".",".",0,".","."],[0,"h",2,".",".",2,"."],[".",".",".",".",".",".","."],[0,".",".",0,".",".",0]]],"numberofstrings":6,"notes":["E","B","G","D","A","E","B"],"capo":0,"stringnotes":["E4","B3","G3","D3","A2","E2"],"comments":["Stave 1:","Stave 2:"],"timing":[[null,"W",null,"W","W","W","W","W","W","W","W","W","W","W",null,"W",null,"W","W","W","W","W",null,"W","W","W","W","W",null,"W","W","W","W","W"],["W",null,"W","W","W","W","W"]],"timingvisible":false,"tabcounter":7,"stave":1,"totalstaves":2,"instrument":"6guitar","selectedtuning":"6_standard","version":"13"}

Member for

3 years 7 months
Submitted by runerool on Sun, 2018-05-20 04:37