Sound will begin in 5 seconds

Jimmy Bryant - Arkansas Traveler

01234567891011121314151617181920212223
E
B
G
D
A
E
B
0 1 2 3 4 5 6 7 8 9 10 11 12 13 14 15 16 17 18 19 20 21 22 23
(/) Slide Up  (\) Slide Down  (h) Hammer On  (p) Pull Off  (b) Bend (r) Release (v) Vibrato

Stave 1:

E|-----10--7--10--7------7------------------------------------------------------------------------------
B|-------------------10-----10--7-----------------------------------------------------------------------
G|---------------------------------11--7--9--7--------------11h12--14--12--11--14--------12--11--9--12--
D|------------------------------------------------------------------------------------------------------
A|------------------------------------------------------------------------------------------------------
E|------------------------------------------------------------------------------------------------------

Stave 2:

E|--------------------------------------------------------------------------
B|--------------------------------------------------------------------------
G|--11--9----------9--------------------------------------------------------
D|---------12--11-----12--9--12--11--12--9--------------12--14--16--12--14--
A|------------------------------------------12--11--14----------------------
E|--------------------------------------------------------------------------

Stave 3:

E|----------------------------------------------------------------------------------------------
B|----------------------------------------------------------------------------------------------
G|--11--12--14--12--11--14--12--11--9--12--11--9----------9-------------------------------------
D|------------------------------------------------12--11-----12--9--12--11--12--9--7--9--7------
A|------------------------------------------------------------------------------------------10--
E|----------------------------------------------------------------------------------------------

Stave 4:

E|-------------------
B|-------------------
G|-------------------
D|-------------------
A|--9------7---------
E|-----10-----9--10--

							http://www.guitartabcreator.com
Note:
Guitar Tab Creator is intended to store guitar tab created through the tool. It currently does not support in-line text editing. Any text you place in here will be lost. If you need to comment on your tab, please use the "Tab Notes" section located below.