Sound will begin in 5 seconds

Green Day - Bang Bang

Chords
01234567891011121314151617181920212223
E
B
G
D
A
E
B
0 1 2 3 4 5 6 7 8 9 10 11 12 13 14 15 16 17 18 19 20 21 22 23
(/) Slide Up  (\) Slide Down  (h) Hammer On  (p) Pull Off  (b) Bend (r) Release (v) Vibrato

Stave 1:

E|---------------------------------------------------------------------------------------------------------
B|---------------------------------------------------------------------------------------------------------
G|--------------------------10--10--10-----10--10--10--10-----7--7-----7--7--7--7-----7--7-----7--7--7--7--
D|--7--7-----7--7--7--------10--10--10-----10--10--10--10-----7--7-----7--7--7--7-----7--7-----7--7--7--7--
A|--7--7-----7--7--7--------8---8---8------8---8---8---8------5--5-----5--5--5--5-----5--5-----5--5--5--5--
E|--5--5-----5--5--5---------------------------------------------------------------------------------------

Stave 2:

E|---------------------------------------------------------------------------------------------------------------
B|---------------------------------------------------------------------------------------------------------------
G|--------------------------10--10--10-----10--10--10--10--------5--5-----5--5--5--------9--9--9-----9--9--9--9--
D|--7--7-----7--7--7--------10--10--10-----10--10--10--10--------5--5-----5--5--5--------9--9--9-----9--9--9--9--
A|--7--7-----7--7--7--------8---8---8------8---8---8---8---------3--3-----3--3--3--------7--7--7-----7--7--7--7--
E|--5--5-----5--5--5---------------------------------------------------------------------------------------------

Stave 3:

E|--------------------------------------------------------------------------------------------------------
B|--------------------------------------------------------------------------------------------------------
G|-----------7--7--7-----------------7--7--7--------------------7--7--7-----------------------------------
D|--5--7-----7--7--7--7-----5--7-----7--7--7--7--------5--7-----7--7--7--7-----7--7--7-----5--5--5-----5--
A|--5--7-----5--5--5--7-----5--7-----5--5--5--7--------5--7-----5--5--5--7-----7--7--7-----5--5--5-----5--
E|--3--5--------------5-----3--5--------------5--10\3--3--5--------------5-----5--5--5-----3--3--3-----3--

Stave 4:

E|--------------------------------------------------------------------------------------------------------
B|--------------------------------------------------------------------------------------------------------
G|--------7--7--7-----7--7--7--------------------------------------------7--7--7--------------------------
D|--5-----7--7--7-----7--7--7-----7--7--7-----7--7--7--7--7-----5--7-----7--7--7--7-----7--7--7-----5--5--
A|--5-----5--5--5-----5--5--5-----7--7--7-----7--7--7--7--7-----5--7-----5--5--5--7-----7--7--7-----5--5--
E|--3-----------------------------5--5--5-----5--5--5--5--5-----3--5--------------5-----5--5--5-----3--3--

Stave 5:

E|-----------------------------------------------------------------------
B|-----------------------------------------------------------------------
G|--------------------7--7--7-----7--7--7--------------------------------
D|--5-----5--5--5-----7--7--7-----7--7--7-----7--7--7-----7--7--7--7--7--
A|--5-----5--5--5-----5--5--5-----5--5--5-----7--7--7-----7--7--7--7--7--
E|--3-----3--3--3-----------------------------5--5--5-----5--5--5--5--5--

Stave 6:

E|------------------------------------------------------------------------------------------------------
B|------------------------------------------------------------------------------------------------------
G|-----------------------10--10--10-----10--10--10--10-----7--7-----7--7--7--7-----7--7-----7--7--7--7--
D|--7--7-----7--7--7-----10--10--10-----10--10--10--10-----7--7-----7--7--7--7-----7--7-----7--7--7--7--
A|--7--7-----7--7--7-----8---8---8------8---8---8---8------5--5-----5--5--5--5-----5--5-----5--5--5--5--
E|--5--5-----5--5--5------------------------------------------------------------------------------------

Stave 7:

E|----------------------------------------------------------------------------------------------------
B|----------------------------------------------------------------------------------------------------
G|-----------------------5--5--5-----5--5--5--5-----10--10-----10--10--10-----7--7--7-----7--7--7--7--
D|--7--7-----7--7--7-----5--5--5-----5--5--5--5-----10--10-----10--10--10-----7--7--7-----7--7--7--7--
A|--7--7-----7--7--7-----3--3--3-----3--3--3--3-----8---8------8---8---8------5--5--5-----5--5--5--5--
E|--5--5-----5--5--5----------------------------------------------------------------------------------

Stave 8:

E|------------------------------------------------------------------------------------------------------
B|------------------------------------------------------------------------------------------------------
G|-----------------------10--10--10-----10--10--10--10-----7--7-----7--7--7--7-----7--7-----7--7--7--7--
D|--7--7-----7--7--7-----10--10--10-----10--10--10--10-----7--7-----7--7--7--7-----7--7-----7--7--7--7--
A|--7--7-----7--7--7-----8---8---8------8---8---8---8------5--5-----5--5--5--5-----5--5-----5--5--5--5--
E|--5--5-----5--5--5------------------------------------------------------------------------------------

Stave 9:

E|------------------------------------------------------------------------------------
B|------------------------------------------------------------------------------------
G|-----------------------10--10--10-----10--10--10--10-----5--5-----5--5--5--5-----9--
D|--7--7-----7--7--7-----10--10--10-----10--10--10--10-----5--5-----5--5--5--5-----9--
A|--7--7-----7--7--7-----8---8---8------8---8---8---8------3--3-----3--3--3--3-----7--
E|--5--5-----5--5--5------------------------------------------------------------------

Stave 10:

E|-----------------------------------------------------------------------------------------------------------------
B|-----------------------------------------------------------------------------------------------------------------
G|-----------7--7--7--------------------------------------------7--7--7-----7--7--7--------------------------------
D|--5--7-----7--7--7--7-----7--7--7-----5--5--5-----5--5--5-----7--7--7-----7--7--7-----7--7--7-----7--7--7--7--7--
A|--5--7-----5--5--5--7-----7--7--7-----5--5--5-----5--5--5-----5--5--5-----5--5--5-----7--7--7-----7--7--7--7--7--
E|--3--5--------------5-----5--5--5-----3--3--3-----3--3--3-----------------------------5--5--5-----5--5--5--5--5--

Stave 11:

E|-----------------------------------------------------------------------------------------------------------------
B|-----------------------------------------------------------------------------------------------------------------
G|-----------7--7--7--------------------------------------------7--7--7-----7--7--7--------------------------------
D|--5--7-----7--7--7--7-----7--7--7-----5--5--5-----5--5--5-----7--7--7-----7--7--7-----7--7--7-----7--7--7--7--7--
A|--5--7-----5--5--5--7-----7--7--7-----5--5--5-----5--5--5-----5--5--5-----5--5--5-----7--7--7-----7--7--7--7--7--
E|--3--5--------------5-----5--5--5-----3--3--3-----3--3--3-----------------------------5--5--5-----5--5--5--5--5--

Stave 12:

E|------------------------------------------------------------------------------------------------------
B|------------------------------------------------------------------------------------------------------
G|-----------------------10--10--10-----10--10--10--10-----7--7-----7--7--7--7-----7--7-----7--7--7--7--
D|--7--7-----7--7--7-----10--10--10-----10--10--10--10-----7--7-----7--7--7--7-----7--7-----7--7--7--7--
A|--7--7-----7--7--7-----8---8---8------8---8---8---8------5--5-----5--5--5--5-----5--5-----5--5--5--5--
E|--5--5-----5--5--5------------------------------------------------------------------------------------

Stave 13:

E|--
B|--
G|--
D|--
A|--
E|--

Stave 14:

E|------------------------------------------------------------------------------------------------------
B|------------------------------------------------------------------------------------------------------
G|-----------------------10--10--10-----10--10--10--10-----7--7-----7--7--7--7-----7--7-----7--7--7--7--
D|--7--7-----7--7--7-----10--10--10-----10--10--10--10-----7--7-----7--7--7--7-----7--7-----7--7--7--7--
A|--7--7-----7--7--7-----8---8---8------8---8---8---8------5--5-----5--5--5--5-----5--5-----5--5--5--5--
E|--5--5-----5--5--5------------------------------------------------------------------------------------

Stave 15:

E|------------------------------------------------------------------------------------------------------
B|------------------------------------------------------------------------------------------------------
G|-----------------------10--10--10-----10--10--10--10-----5--5-----5--5--5-----9--9--9-----9--9--9--9--
D|--7--7-----7--7--7-----10--10--10-----10--10--10--10-----5--5-----5--5--5-----9--9--9-----9--9--9--9--
A|--7--7-----7--7--7-----8---8---8------8---8---8---8------3--3-----3--3--3-----7--7--7-----7--7--7--7--
E|--5--5-----5--5--5------------------------------------------------------------------------------------

							http://www.guitartabcreator.com
Note:
Guitar Tab Creator is intended to store guitar tab created through the tool. It currently does not support in-line text editing. Any text you place in here will be lost. If you need to comment on your tab, please use the "Tab Notes" section located below.