Sound will begin in 5 seconds

Goosolo

Chords
01234567891011121314151617181920212223
E
B
G
D
A
E
B
0 1 2 3 4 5 6 7 8 9 10 11 12 13 14 15 16 17 18 19 20 21 22 23
(/) Slide Up  (\) Slide Down  (h) Hammer On  (p) Pull Off  (b) Bend (r) Release (v) Vibrato

Stave 1:

E|-----5--------------------------0-----5--0--------
B|-----------5-----------8--------------------3-----
G|-----------------5--------7---7\---------------5--
D|--------------------7-----9-----------------------
A|--------3-----3--3--------10----------------------
E|--------5-----5--5-----------------3-----3-----0--

Stave 2:

E|---------------------|--------------------------|----------------------|--------------------------------0-----
B|---------------------|------------------13--12--|------------------13--|--------------------------------0-----
G|--5/7--5--3-----3h5--|------------------12--12--|------------------12--|--7h9--7------------------------0-----
D|-------------5-------|--5/7\5/7\5p3-----12--12--|-----7v--7v--/14--12--|--7-------10--9--7--5--5--------------
A|---------------------|---------------5--14------|--0---------------14--|--8--------------------7--3--5-----3--
E|---------------------|--------------------------|----------------------|-----------------------------------5--

Stave 3:

E|----------------------------------0-----------------------------------------------------------0--
B|--8--6--5-------------------------------------------------------------------------------------0--
G|--9--7--5-----7--------------------------------------12h14--12--14--12--14--------------------9--
D|-----------7-----7/9\7/9\7--5-----9--7---------9--7--12------------------------7h9--7---------9--
A|-------------------------------7--------10--7-------------------12--10--12--7----------10--7-----
E|-------------------------------------------------------------------------------------------------

Stave 4:

E|------------------------------------------|-------------------------|------15-------------|--
B|--17--15----------------------------------|--17--15------15/17--15--|--15------15--13-----|--
G|----------16--14--12--16--14--12--14------|----------14-------------|------12----------14/|--
D|--------------------------------------14--|-------------------------|---------------------|--
A|------------------------------------------|-------------------------|---------------------|--
E|------------------------------------------|-------------------------|---------------------|--

Stave 5:

E|------15----------------------------------|--12/15--------------15------------------------------------------------------
B|--17------17--15--------------------------|---------17--15--13------17--------------------------------------------------
G|------------------14/16\14/16\14--12------|-----------------------------12h14--12--12--14--12--14--------------------9--
D|--------------------------------------14--|-----------------------------12----------------------------7h9--7---------7--
A|------------------------------------------|----------------------------------------10--12--10--12--7----------10--7--7--
E|------------------------------------------|-----------------------------------------------------------------------------

Stave 6:

E|------0--
B|------0--
G|--9---9--
D|--10--7--
A|--12--7--
E|---------

							http://www.guitartabcreator.com
Note:
Guitar Tab Creator is intended to store guitar tab created through the tool. It currently does not support in-line text editing. Any text you place in here will be lost. If you need to comment on your tab, please use the "Tab Notes" section located below.