Sound will begin in 5 seconds

Flow

Chords
01234567891011121314151617181920212223
E
B
G
D
A
E
B
0 1 2 3 4 5 6 7 8 9 10 11 12 13 14 15 16 17 18 19 20 21 22 23
(/) Slide Up  (\) Slide Down  (h) Hammer On  (p) Pull Off  (b) Bend (r) Release (v) Vibrato

Stave 1:

E|--------------------------------0-----0--4h5p4-------------------------------------------------
B|------------------------------------------------6p5--------------------------------------------
G|---------------------------------/10-----------------7--4h5h7----------------------------------
D|------------------h17--15p14\5---------------------------------6-------------------0-----------
A|-----7-----h15p0--------------------------------------------------------------7-----h17p7h8p7--
E|--5-------------/8---------------------------------------------------------5---/8--------------

Stave 2:

E|-------------------4-----h15h17p12---------12-7--
B|----------------5--------------------------------
G|-------------5-----------------------------------
D|----------7--------------------------------------
A|-------7-----------------------------------------
E|--5h8-------------------------------13\12--12\7--

							http://www.guitartabcreator.com
Note:
Guitar Tab Creator is intended to store guitar tab created through the tool. It currently does not support in-line text editing. Any text you place in here will be lost. If you need to comment on your tab, please use the "Tab Notes" section located below.