Sound will begin in 5 seconds

cool chords

Chords
01234567891011121314151617181920212223
E
B
G
D
A
E
B
0 1 2 3 4 5 6 7 8 9 10 11 12 13 14 15 16 17 18 19 20 21 22 23
(/) Slide Up  (\) Slide Down  (h) Hammer On  (p) Pull Off  (b) Bend (r) Release (v) Vibrato

Stave 1:

E|--0-----0--
B|--8-----8--
G|--7-----7--
D|--0---8/9--
A|--10-------
E|--8-----7--

Stave 2:

E|--10h12p10------------------------------------------------------------------------
B|--8----------h13p8h12p8--12h13p13-----------7-------------------------------------
G|--7---------0------------11------h14--------7--5p4h5/12/14--16p14p12h14h16p14p12--
D|--9----------------------12-----------------7--0----------------------------------
A|-------------------------10-------------------------------------------------------
E|--8-----------------------------------------7--5----------------------------------

							http://www.guitartabcreator.com
Note:
Guitar Tab Creator is intended to store guitar tab created through the tool. It currently does not support in-line text editing. Any text you place in here will be lost. If you need to comment on your tab, please use the "Tab Notes" section located below.