Sound will begin in 5 seconds

CHON - fluffy (oh god)

Chords
01234567891011121314151617181920212223
E
B
G
D
A
E
B
0 1 2 3 4 5 6 7 8 9 10 11 12 13 14 15 16 17 18 19 20 21 22 23
(/) Slide Up  (\) Slide Down  (h) Hammer On  (p) Pull Off  (b) Bend (r) Release (v) Vibrato

Stave 1:

E|----------------6-------------------------9--------------------------------------------------6----------
B|-------------9-----9/11----------------------9------------6-------------------------------9---/11p9h11--
G|--------8p6--------------11-----10-------------------6h8-----8/10--6-----------------6h8----------------
D|------------------------------------------------6h8-------------------------8--6------------------------
A|-------------------------------------------------------------------------6------------------------------
E|-----7-----------------------9------9---------------------------------8-----------8---------------------

Stave 2:

E|---------13p11p9------------------6---------------------------------6--------------------9----------
B|------------------11p9\7-----7h9-----7b6p6-----------------------7-----11-------------------9-------
G|--------------------------------------------8p6-----------6h8p6------------11-----10----------------
D|-------------------------------------------------8---------------------------------------------6h8--
A|----------------------------------------------------------------------------------------------------
E|--9--11-------------------9----------------------------7-----------------------9------7-------------

Stave 3:

E|------------------6--6-----------------------------4--6---------13p11p9----------------6-------------
B|-------6--6-------------9p7p6--6--6----------7--6------------------------11p9-----7h9-----7--6-------
G|--6h8--------8p6------------------------6h8-----6-----------------------------------------------8p6--
D|------------------------------------------------6----------------------------------------------------
A|-----------------------------------------------------------------------------------------------------
E|-------------------------------------7----------6--------9--11-----------------9---------------------

Stave 4:

E|----------
B|----------
G|----------
D|--8p6-----
A|----------
E|-------7--

							http://www.guitartabcreator.com
Note:

11 - 9 - 10 - 7

Guitar Tab Creator is intended to store guitar tab created through the tool. It currently does not support in-line text editing. Any text you place in here will be lost. If you need to comment on your tab, please use the "Tab Notes" section located below.