Sound will begin in 5 seconds

Chon - Dew

01234567891011121314151617181920212223
E
B
G
D
A
E
B
0 1 2 3 4 5 6 7 8 9 10 11 12 13 14 15 16 17 18 19 20 21 22 23
(/) Slide Up  (\) Slide Down  (h) Hammer On  (p) Pull Off  (b) Bend (r) Release (v) Vibrato

Stave 1:

E|---------10---------------------|--10-----------------|-----------------h19h21p14h17p14--|--
B|-------------10--7--------------|------14p10----------|-----15--10h12h14-----------------|--
G|--------------------9/11--------|-------------11------|----------------------------------|--
D|--------------------------7--9--|-----------------14--|----------------------------------|--
A|-----10-------------------------|---------------------|--9-------------------------------|--
E|--------------------------------|---------------------|----------------------------------|--

Stave 2:

E|------------------------------|--------------------------------------------|-----------------
B|----------------------14------|------10------------------------------------|------10---------
G|--19h21p14p11-------------16--|----------11------12h14-----------------11--|----------11--9--
D|---------------14/16----------|-------------------------12h14--16--14------|-----------------
A|------------------------------|--10----------------------------------------|--10-------------
E|------------------------------|--------------12----------------------------|-----------------

Stave 3:

E|---------------------|-----------------------------|--------------------|--h19h21p14h17p14--------------
B|---------------------|------10---------------------|--------------------|-------------------------------
G|--------------7------|----------11--12h14----------|--------------------|-----------------h19h21p14p11--
D|-----7h9--11-----11--|---------------------12------|--12h14--16p14------|-------------------------------
A|--9------------------|--10-------------------------|----------------12--|-------------------------------
E|---------------------|-------------------------12--|--------------------|-------------------------------

Stave 4:

E|-------------------------|--
B|---------14--------------|--
G|-------------16----------|--
D|--14/16----------16--14--|--
A|-------------------------|--
E|-------------------------|--

							http://www.guitartabcreator.com
Note:
Guitar Tab Creator is intended to store guitar tab created through the tool. It currently does not support in-line text editing. Any text you place in here will be lost. If you need to comment on your tab, please use the "Tab Notes" section located below.