Sound will begin in 5 seconds

bracelet

Chords
01234567891011121314151617181920212223
E
B
G
D
A
E
B
0 1 2 3 4 5 6 7 8 9 10 11 12 13 14 15 16 17 18 19 20 21 22 23
(/) Slide Up  (\) Slide Down  (h) Hammer On  (p) Pull Off  (b) Bend (r) Release (v) Vibrato

Stave 1:

E|------------------------------------------------
B|--1-------------1-------------------------------
G|--0h2-----2-----------0----------0-----0-----0--
D|-------3-----------3-----0h2--2-----------2-----
A|--3----------3-----------3----------3-----------
E|------------------------------------------------

Stave 2:

E|-----------------0------------------0-----------------0--
B|--8---------------------3-----------------1--------------
G|--9-------9-------------------4-----------------2--------
D|------10------------10-----5-----------5-----3-----------
A|--10---------10---------5--------5--------3--------3-----
E|---------------------------------------------------------

Stave 3:

E|--0h3-----------3--
B|----------1--------
G|-------------------
D|-------2-----------
A|--3----------3-----
E|-------------------

							http://www.guitartabcreator.com
Note:
Guitar Tab Creator is intended to store guitar tab created through the tool. It currently does not support in-line text editing. Any text you place in here will be lost. If you need to comment on your tab, please use the "Tab Notes" section located below.