Sound will begin in 5 seconds

Arpeggios

01234567891011121314151617181920212223
E
B
G
D
A
E
B
0 1 2 3 4 5 6 7 8 9 10 11 12 13 14 15 16 17 18 19 20 21 22 23
(/) Slide Up  (\) Slide Down  (h) Hammer On  (p) Pull Off  (b) Bend (r) Release (v) Vibrato

Stave 1:

E|---------------------------10--14h19p14--10---------------------------
B|-----------------------12--------------------12-----------------------
G|-------------------11----------------------------11-------------------
D|---------------12------------------------------------12---------------
A|-----5--9--14--------------------------------------------14--9--5-----
E|--7----------------------------------------------------------------7--

Stave 2:

E|-------------------------9--12h17p12p9-------------------------
B|---------------------10-----------------10---------------------
G|------------------9-------------------------9------------------
D|--------------11-------------------------------11--------------
A|-----4--7/12---------------------------------------12\7--4-----
E|--5---------------------------------------------------------5--

							http://www.guitartabcreator.com
Note:
Guitar Tab Creator is intended to store guitar tab created through the tool. It currently does not support in-line text editing. Any text you place in here will be lost. If you need to comment on your tab, please use the "Tab Notes" section located below.