Sound will begin in 5 seconds

Arpeggio (A major)

01234567891011121314151617181920212223
E
B
G
D
A
E
B
0 1 2 3 4 5 6 7 8 9 10 11 12 13 14 15 16 17 18 19 20 21 22 23
(/) Slide Up  (\) Slide Down  (h) Hammer On  (p) Pull Off  (b) Bend (r) Release (v) Vibrato

Stave 1:

E|--------------------5-----------------------------------7-----------------------
B|--------------2--5-----5--2--------------------------7-----7--------------------
G|-----------2-----------------2-----------------4--7-----------7--4--------------
D|--------2-----------------------2-----------4-----------------------4-----------
A|--0--4-----------------------------4--2--5-----------------------------5--4-----
E|--------------------------------------------------------------------------------

Stave 2:

E|--------------------------16--------------------------
B|----------------------15------15----------------------
G|--------------13--16--------------16--13--------------
D|----------12------------------------------12----------
A|--11--14--------------------------------------14--11--
E|------------------------------------------------------

							http://www.guitartabcreator.com
Note:
Guitar Tab Creator is intended to store guitar tab created through the tool. It currently does not support in-line text editing. Any text you place in here will be lost. If you need to comment on your tab, please use the "Tab Notes" section located below.