The Alabama Kid - Rocking Jalopy soolo II osa

Chords

01234567891011121314151617181920212223
E
B
G
D
A
E
B
0 1 2 3 4 5 6 7 8 9 10 11 12 13 14 15 16 17 18 19 20 21 22 23
(/) Slide Up  (\) Slide Down  (h) Hammer On  (p) Pull Off  (b) Bend (r) Release (v) Vibrato

Stave 1:

E|--13b13--10------10--13--10-----------------------------10----------------------------------------------
B|-------------13--------------13--10---------------------10----------------------------------------------
G|-------------------------------------12--10------12b14------12--10------10------10--12--14--12--10------
D|---------------------------------------------12---------------------12------12----------------------12--
A|--------------------------------------------------------------------------------------------------------
E|--------------------------------------------------------------------------------------------------------

Stave 2:

E|------------------------------
B|------------------------------
G|------7--7--7--7-----7--7--7--
D|--10--7--7--7--7-----7--7--7--
A|------------------------------
E|------------------------------

							http://www.guitartabcreator.com
Instruments
{"title":"","strings":[[[13,"b",13,10,".",10,13,10,".",".",".",".",".",".",".",".",10,".",".",".",".",".",".",".",".",".",".","."],[".",".",".",".",13,".",".",".",13,10,".",".",".",".",".",".",10,".",".",".",".",".",".",".",".",".",".","."],[".",".",".",".",".",".",".",".",".",".",12,10,".",12,"b",14,".",12,10,".",10,".",10,12,14,12,10,"."],[".",".",".",".",".",".",".",".",".",".",".",".",12,".",".",".",".",".",".",12,".",12,".",".",".",".",".",12],[".",".",".",".",".",".",".",".",".",".",".",".",".",".",".",".",".",".",".",".",".",".",".",".",".",".",".","."],[".",".",".",".",".",".",".",".",".",".",".",".",".",".",".",".",".",".",".",".",".",".",".",".",".",".",".","."]],[[".",".",".",".",".","_",".",".","."],[".",".",".",".",".","_",".",".","."],[".",7,7,7,7,"_",7,7,7],[10,7,7,7,7,"_",7,7,7],[".",".",".",".",".","_",".",".","."],[".",".",".",".",".","_",".",".","."]]],"numberofstrings":6,"notes":["E","B","G","D","A","E","B"],"capo":0,"stringnotes":["E4","B3","G3","D3","A2","E2"],"comments":["Stave 1:","Stave 2:"],"timing":[["W",null,"W","W","W","W","W","W","W","W","W","W","W","W",null,"W","W","W","W","W","W","W","W","W","W","W","W","W","W"],["W","W","W","W","W",null,"W","W","W"]],"timingvisible":false,"tabcounter":8,"stave":1,"totalstaves":2,"instrument":"6guitar","selectedtuning":"6_standard","version":"13"}

Member for

3 years 7 months
Submitted by runerool on Thu, 2018-03-15 11:12