Sound will begin in 5 seconds

Key of G Pentatonic: Position 1

01234567891011121314151617181920212223
E
B
G
D
A
E
B
0 1 2 3 4 5 6 7 8 9 10 11 12 13 14 15 16 17 18 19 20 21 22 23
Song Science #1: How Pros Use 6 Chords to Write Hit Songs
(/) Slide Up  (\) Slide Down  (h) Hammer On  (p) Pull Off  (b) Bend (r) Release (v) Vibrato

Stave 1:

E|--------------------------------3--5--
B|--------------------------3--5--------
G|--------------------2--4--------------
D|--------------2--5--------------------
A|--------2--5--------------------------
E|--3--5--------------------------------

Stave 2:

E|---------------------------3h5--
B|----------------------3h5-------
G|-----------------2h4------------
D|------------2h5-----------------
A|-------2h5----------------------
E|--3h5---------------------------

Stave 3:

E|---------------------------5p3--
B|----------------------5p3-------
G|-----------------4p2------------
D|------------5p2-----------------
A|-------5p2----------------------
E|--5p3---------------------------

Stave 4:

E|--------------------------3--5--------
B|--------------------------------3--5--
G|--------------------2--4--------------
D|--------2--5--------------------------
A|--------------2--5--------------------
E|--3--5--------------------------------

Stave 5:

E|--------3--5--------3--5--------3--5--------3--5--------
B|--3--5--------------------------------------------------
G|--------------2--4--------------------------------------
D|--------------------------3--5--------------------------
A|--------------------------------------2--5--------------
E|--------------------------------------------------3--5--

Stave 6:

E|--------3--5--------------------------------------------------------
B|--------------------3--5--------------------------------------------
G|--------------------------------2--4--------------------------------
D|--------------------------------------------2--5--------------------
A|--------------------------------------------------------2--5--------
E|--3--5--------3--5--------3--5--------3--5--------3--5--------3--5--

Stave 7:

E|--
B|--
G|--
D|--
A|--
E|--

http://www.guitartabcreator.com
Guitar Tab Creator is intended to store guitar tab created through the tool. It currently does not support in-line text editing. Any text you place in here will be lost. If you need to comment on your tab, please use the "Tab Notes" section located below.