Sound will begin in 5 seconds

Key of G Diatonic: Position 1 (Ionian)

01234567891011121314151617181920212223
E
B
G
D
A
E
B
0 1 2 3 4 5 6 7 8 9 10 11 12 13 14 15 16 17 18 19 20 21 22 23
Song Science #1: How Pros Use 6 Chords to Write Hit Songs
(/) Slide Up  (\) Slide Down  (h) Hammer On  (p) Pull Off  (b) Bend (r) Release (v) Vibrato

Stave 1:

E|--------------------------------------------3--5--7--
B|--------------------------------------5--7-----------
G|-----------------------------4--5--7-----------------
D|--------------------4--5--7--------------------------
A|-----------3--5--7-----------------------------------
E|--3--5--7--------------------------------------------

Stave 2:

E|-----------------------------------3h5h7--
B|------------------------------5h7---------
G|-----------------------4h5h7--------------
D|----------------4h5h7---------------------
A|---------3h5h7----------------------------
E|--3h5h7-----------------------------------

Stave 3:

E|-----------------------------------7p5p3--
B|------------------------------7p5---------
G|-----------------------7p5p4--------------
D|----------------7p5p4---------------------
A|---------7p5p3----------------------------
E|--7p5p3-----------------------------------

Stave 4:

E|--------------------------------------3--5--7--------
B|-----------------------------------------------5--7--
G|-----------------------------4--5--7-----------------
D|-----------4--5--7-----------------------------------
A|--------------------3--5--7--------------------------
E|--3--5--7--------------------------------------------

Stave 5:

E|--------3--5--7-----------3--5--7-----------3--5--7-----------3--5--7-----------
B|--5--7--------------------------------------------------------------------------
G|-----------------4--5--7--------------------------------------------------------
D|-----------------------------------4--5--7--------------------------------------
A|-----------------------------------------------------3--5--7--------------------
E|-----------------------------------------------------------------------3--5--7--

Stave 6:

E|-----------3--5--7--------------------------------------------------------------------------------
B|-----------------------------5--7-----------------------------------------------------------------
G|--------------------------------------------4--5--7-----------------------------------------------
D|--------------------------------------------------------------4--5--7-----------------------------
A|--------------------------------------------------------------------------------3--5--7-----------
E|--3--5--7-----------3--5--7--------3--5--7-----------3--5--7-----------3--5--7-----------3--5--7--

Stave 7:

E|----------------------------------------------------------------------------------------------
B|----------------------------------------------------------------------------------------------
G|-------------------------------------------------------------------4--------4--5-----4--5--7--
D|----------------------------------------4--------4--5-----4--5--7-----5--7--------7-----------
A|-------------3--------3--5-----3--5--7-----5--7--------7--------------------------------------
E|----3--5--7-----5--7--------7-----------------------------------------------------------------

Stave 8:

E|--------------------------3--------3--5-----3--5--7--------3--5--7--------3-----------------------
B|--5--------5--7-----5--7-----5--7--------7-----------5--7-----------5--7--------5--7--------5--7--
G|-----5--7--------7-----------------------------------------------------------7--------5--7--------
D|--------------------------------------------------------------------------------------------------
A|--------------------------------------------------------------------------------------------------
E|--------------------------------------------------------------------------------------------------

Stave 9:

E|-----------------------------------------------------------------------------------------
B|-----------5-----------------------------------------------------------------------------
G|--4--5--7--------4--5--7--------4--5-----------4-----------------------------------------
D|--------------7-----------5--7--------4--5--7--------4--5--7--------4--5-----------4-----
A|--------------------------------------------------7-----------5--7--------3--5--7--------
E|--------------------------------------------------------------------------------------7--

Stave 10:

E|--------------------------------------
B|--------------------------------------
G|--------------------------------------
D|--------------------------------------
A|--3--5--7--------5--7-----------3-----
E|-----------5--7--------3--5--7-----3--

Stave 11:

E|--------------------------------------------------------------------------
B|--------------------------------------------------------------------5-----
G|-----------------------------------------------------4--5--4--5--7-----7--
D|--------------------------------4-----4--5--7--5--7-----------------------
A|-----------------3--5--3--5--7-----7--------------------------------------
E|--3--5--7--5--7-----------------------------------------------------------

Stave 12:

E|--------3-----3--5--7--5--3--------------------------------------------
B|--5--7-----7-----------------7--5--7-----------------------------------
G|--------------------------------------7--5--4--5--4--------------------
D|-----------------------------------------------------7--5--7--5--4--5--
A|-----------------------------------------------------------------------
E|-----------------------------------------------------------------------

Stave 13:

E|-----------------------------------
B|-----------------------------------
G|-----------------------------------
D|--4--------------------------------
A|-----7--5--7--5--3--5--3-----------
E|--------------------------7--5--3--

http://www.guitartabcreator.com
Guitar Tab Creator is intended to store guitar tab created through the tool. It currently does not support in-line text editing. Any text you place in here will be lost. If you need to comment on your tab, please use the "Tab Notes" section located below.