The Distance-Cake

Chords

01234567891011121314151617181920212223
E
B
G
D
A
E
B
0 1 2 3 4 5 6 7 8 9 10 11 12 13 14 15 16 17 18 19 20 21 22 23
(/) Slide Up  (\) Slide Down  (h) Hammer On  (p) Pull Off  (b) Bend (r) Release (v) Vibrato

Stave 1:

G|-----------------------------------
D|-----------------------------------
A|--5--6--7-----------5--6--7--------
E|-----------0-----0-----------0--0--

Stave 2:

G|-----------------------------|-----------------------------------
D|-----5-----------------------|-----------------------------------
A|--7--------7-----7--7--5-----|--------------------7--7--7--5-----
E|--------7-----7-----------7--|--3--3--4--5--7--0--------------7--

Stave 3:

G|-----------------------------------------------------------
D|-----5-----------------------------------------------------
A|--7-----5-----------------------5-----7--------7--7--5-----
E|-----------7--7--7--5--3-----7-----7--------7-----------7--

							http://www.guitartabcreator.com
Instruments
{"title":"The Distance-Cake","strings":[[[".",".",".",".","_",".",".",".",".",".","."],[".",".",".",".","_",".",".",".",".",".","."],[5,6,7,".","_",".",5,6,7,".","."],[".",".",".",0,"_",0,".",".",".",0,0]],[[".",".",".",".",".",".",".",".",".","|",".",".",".",".",".",".",".",".",".",".","."],[".",5,".",".",".",".",".",".",".","|",".",".",".",".",".",".",".",".",".",".","."],[7,".",".",7,".",7,7,5,".","|",".",".",".",".",".",".",7,7,7,5,"."],[".",".",7,".",7,".",".",".",7,"|",3,3,4,5,7,0,".",".",".",".",7]],[[".",".",".",".",".",".",".",".","_",".",".",".",".","_",".",".",".",".","."],[".",5,".",".",".",".",".",".","_",".",".",".",".","_",".",".",".",".","."],[7,".",5,".",".",".",".",".","_",".",5,".",7,"_",".",7,7,5,"."],[".",".",".",7,7,7,5,3,"_",7,".",7,".","_",7,".",".",".",7]]],"numberofstrings":4,"notes":["G","D","A","E"],"capo":0,"stringnotes":["G2","D2","A1","E1"],"comments":["Stave 1:","Stave 2:","Stave 3:"],"timing":[["W","W","W","W",null,"W","W","W","W","W","W"],["W","W","W","W","W","W","W","W","W",null,"W","W","W","W","W","W","W","W","W","W","W"],["W","W","W","W","W","W","W","W",null,"W","W","W","W",null,"W","W","W","W","W"]],"timingvisible":false,"tabcounter":19,"stave":2,"totalstaves":3,"instrument":"4bass","selectedtuning":"4bass_standard","version":"13"}

Member for

8 months 2 weeks
Submitted by rubin1203 on Sun, 2019-10-27 10:13