Sound will begin in 5 seconds

Estopa - Cuando Cae La Luna

01234567891011121314151617181920212223
E
B
G
D
A
E
B
0 1 2 3 4 5 6 7 8 9 10 11 12 13 14 15 16 17 18 19 20 21 22 23
Song Science #1: How Pros Use 6 Chords to Write Hit Songs
(/) Slide Up  (\) Slide Down  (h) Hammer On  (p) Pull Off  (b) Bend (r) Release (v) Vibrato

Stave 1:

E|--3--3--3--3--2--0-------------2--2--2--2--0----------------0--0--0--0h2p0--------------
B|--------------------3--3/5--------------------3--1--1h3---------------------3--1--0-----
G|-------------------------------------------------------------------------------------2--
D|----------------------------------------------------------------------------------------
A|----------------------------------------------------------------------------------------
E|----------------------------------------------------------------------------------------

Stave 2:

E|--------------------0--2--3/5--3--3h5p3\2-----7--7--7--7--5----------------5--5--5--5h7p5-------------------
B|-----------0--1--3-------------------------------------------8--7--7h8---------------------8--7--5--5h7-----
G|-----0--2---------------------------------------------------------------------------------------------------
D|--4---------------------------------------------------------------------------------------------------------
A|------------------------------------------------------------------------------------------------------------
E|------------------------------------------------------------------------------------------------------------

Stave 3:

E|----------------------------------------------------5--7--8--7--
B|--8--8--8--8p7--7--5-----------------------5--7--8--------------
G|----------------------7--5-----------5--7-----------------------
D|-------------------------------7--9-----------------------------
A|----------------------------------------------------------------
E|----------------------------------------------------------------

http://www.guitartabcreator.com
Guitar Tab Creator is intended to store guitar tab created through the tool. It currently does not support in-line text editing. Any text you place in here will be lost. If you need to comment on your tab, please use the "Tab Notes" section located below.