Sound will begin in 5 seconds

Test TIB

01234567891011121314151617181920212223
E
B
G
D
A
E
B
0 1 2 3 4 5 6 7 8 9 10 11 12 13 14 15 16 17 18 19 20 21 22 23
Song Science #1: How Pros Use 6 Chords to Write Hit Songs
(/) Slide Up  (\) Slide Down  (h) Hammer On  (p) Pull Off  (b) Bend (r) Release (v) Vibrato

Stave 1:

E|-----------1-----------------1-----------------1-----------------1-----------------0--------
B|--------3-----3-----------3-----3-----------3-----3-----------3-----3-----------3-----3-----
G|-----2-----------2-----2-----------2-----2-----------2-----0-----------0-----0-----------0--
D|--0-----------------------------------------------------------------------------------------
A|--------------------4-----------------3-----------------2-----------------1-----------------
E|--------------------------------------------------------------------------------------------

Stave 2:

E|---------------------------------------
B|--3--2-----2--3--5--8-----6-----5h6p5--
G|--------3--------------0-----0---------
D|--------------------8-----7-----5------
A|--1--0-----0--2--4---------------------
E|--------3------------------------------

Stave 3:

E|--------1-----------------1-----------------1-----------------1-----------------0-----------
B|--------3-----------------3-----------------3-----------------3-----------------3-----------
G|-----2-----2-----2-----2-----2-----2-----2-----2-----2-----0-----0-----0-----0-----0-----0--
D|--0-----------0-----------------0-----------------0-----------------0-----------------0-----
A|--------------------4-----------------3-----------------2-----------------1-----------------
E|--------------------------------------------------------------------------------------------

Stave 4:

E|---------------------------------------
B|--3--2-----2--3--5--8-----6-----5h6p5--
G|-----------------------0-----0---------
D|--------3-----------8-----7-----5------
A|--1--0-----0--2--4---------------------
E|--------3------------------------------

Stave 5:

E|--------1-----------------1-----------------0-----------|--------------------------------------
B|--------3-----------------3-----------------3-----------|--------3-----------------3-----------
G|-----2-----2-----2-----2-----2-----2-----0-----0-----0--|-----0-----0-----0-----2-----2-----2--
D|--0-----------0-----------------0-----------------0-----|--------------0-----------------0-----
A|--------------------3-----------------1-----------------|--------------------------------------
E|--------------------------------------------------------|--3-----------------1-----------------

Stave 6:

E|-----------------------------0------------------
B|--------3-----------2--3-----------2h3p2--0--2--
G|-----3-----3-----3--------0-----0---------------
D|--------------0---------------------------------
A|--------------------0--2-----------0---------0--
E|--3---------------------------------------------

Stave 7:

E|--------2-----------------2-----------------2-----------------2-----------|--
B|--------3-----------------3-----------------3-----------------3-----------|--
G|-----2-----2-----2-----2-----2-----2-----2-----2-----2-----2-----2-----2--|--
D|--0-----------0-----------------0-----------------0-----------------0-----|--
A|--------------------4-----------------------------------0-----------------|--
E|--------------------------------------2-----------------------------------|--

Stave 8:

E|--------0-----0-----------0-----0-----------0--------------------------
B|-----------3-----3-----------3-----3--------------3-----2-----3-----5--
G|-----4-----------------2-----------------0-----0-----0-----0-----0-----
D|-----------------------------------------------------------------------
A|--------------------------------------------------------0-----2-----4--
E|--3-----------------2-----------------0--------------------------------

Stave 9:

E|--------------------------------------------------------------------------|--
B|--------3-----------------3-----------------3-----------------3-----------|--
G|-----2-----2-----2-----2-----2-----2-----0-----0-----0-----0-----0-----0--|--
D|--------------0-----------------0-----------------0-----------------0-----|--
A|--4-----------------3-----------------2-----------------1-----------------|--
E|--------------------------------------------------------------------------|--

Stave 10:

E|-----------------------------------
B|--3--2p0-----2--3--5--8--6--5h6p5--
G|----------3------------------------
D|----------------------8--7--5------
A|-----0-------0--2--4---------------
E|--1-------3------------------------

Stave 11:

E|-----0--------0-----------------0--------0-----------------0--------0-------0--|--
B|--------6--------6-----------------6--------6-----------------6--------6----6--|--
G|-----------7--------------------------7--------------------------7----------7--|--
D|--0-----------------5-----5--0-----------------5-----5--0-------------------0--|--
A|-----------------------5--------------------------5----------------------------|--
E|-------------------------------------------------------------------------------|--

http://www.guitartabcreator.com
Guitar Tab Creator is intended to store guitar tab created through the tool. It currently does not support in-line text editing. Any text you place in here will be lost. If you need to comment on your tab, please use the "Tab Notes" section located below.