Sound will begin in 5 seconds

Test 2

01234567891011121314151617181920212223
E
B
G
D
A
E
B
0 1 2 3 4 5 6 7 8 9 10 11 12 13 14 15 16 17 18 19 20 21 22 23
Song Science #1: How Pros Use 6 Chords to Write Hit Songs
(/) Slide Up  (\) Slide Down  (h) Hammer On  (p) Pull Off  (b) Bend (r) Release (v) Vibrato

Stave 1:

E|--------------------------|-------3----------5---------------|--------4---------------3----------|--
B|--0-------1-------3-------|--5-------5----0-------4-------0--|-----------6----0------------------|--
G|-------0-------0-------0--|----------------------------------|--4--5-------------4-------4----0--|--
D|--------------------------|------------------4-------4-------|-----------------------------------|--
A|----------0-------2-------|--3-------------------------------|-----------------------------------|--
E|--3-----------------------|----------------------------------|--4----------------4---------------|--

Stave 2:

E|-------3----------5---------------|--------4---------------3----------|-----3----------5-------------
B|--5-------5----0-------4----------|-----------6----0--4------------0--|--5-----5----0-------4--------
G|--------------------------4----0--|--4--5---------------------4-------|---------------------------0--
D|------------------4---------------|-----------------------------------|----------------4-------4-----
A|--3-------------------------------|-----------------------------------|--3---------------------------
E|----------------------------------|--4----------------3---------------|------------------------------

Stave 3:

E|--------4---------------3----------|--------------------------------|-------0---------------0--------
B|-----------6----0------------------|-------1-------1-----1-------1--|----------2---------------2-----
G|--4--5-------------4-------4----0--|----------0----------0-------0--|---------------0-------------0--
D|-----------------------------------|--------------------------------|--------------------------------
A|-----------------------------------|--3---------------------1-------|--0---------------0-------------
E|--4----------------3---------------|------------------2-------------|--------------------------------

Stave 4:

E|-------1---------------1----------|-------1--------------------|----------------------------------|--
B|----------1---------------1-------|-------------1--------------|----------1-------4---------------|--
G|---------------2--2------------2--|--1-------1--------1-----0--|-------0-------0-------5-------5--|--
D|--3---------------3---------------|--3-------------3-----3-----|--------------------------6-------|--
A|----------------------------------|----------------------------|--3-------------------------------|--
E|----------------------------------|----------------------------|------------------4---------------|--

Stave 5:

E|-------3---------------3-------0--|-----3----------5-------------|--------4---------------3----------|--
B|----------3----0--3/5-----3/5-----|--5-----5----0-----4----------|-----------6----0------------------|--
G|----------------------------------|----------------------5----0--|--4--5-------------4-------4----0--|--
D|----------------------------------|----------------5-------------|-----------------------------------|--
A|----------------------------------|--5---------------------------|-----------------------------------|--
E|--3-------------------------------|------------------------------|--4----------------3---------------|--

Stave 6:

E|----------------------------------|-------0---------------0----------|-------1---------------1----------
B|-------1-------1-------1-------1--|----------2---------------2-------|----------1---------------1-------
G|----------0------------0-------0--|---------------0---------------0--|---------------2--2------------2--
D|----------------------------------|----------------------------------|--3---------------3---------------
A|--3---------------2-------1-------|--0---------------0---------------|----------------------------------
E|----------------------------------|----------------------------------|----------------------------------

Stave 7:

E|-----1--------------------|--------------------------|-------------------------------0--|--
B|-----------1--------------|--------1-----------------|----------1---------------0-------|--
G|--1-----1--------1-----0--|-----0-----0--5-----4-----|---------------0-------1----------|--
D|--3-----------3-----3-----|--------------4-----3--0--|-------2--------------------------|--
A|--------------------------|--3-----------------------|--3-------------------------------|--
E|--------------------------|--------------4--0--3-----|------------------0---------------|--

Stave 8:

E|----------0---------------2-------|----------2---------------0-------|----------0-------------2-------
B|----------2---------------2-------|----------3---------------0-------|----------2-------------2-------
G|----------2---------------2-------|-------2--2---------------1-------|----------2---------------------
D|-------2---------------4-------4--|-------4--4------------2----------|-------2-------------4--2----4--
A|--0------------0------------------|--2------------2------------------|--0----------0------------------
E|------------------2---------------|------------------0------------0--|----------------2---------------

Stave 9:

E|-------2------------------------0--|----------0---------------2-------|-------2--2----------------0-----
B|-------3------------------3--5-----|----------2---------------2-------|-------3--3-------------------0--
G|-------2-------------2/4-----------|----------2---------------2-------|-------2--2-------0--1-----------
D|-------4--4------------------------|-------2---------------4-------4--|-------4--4-------------2--------
A|--2------------2-------------------|--0------------0------------------|--2------------------------------
E|------------------0----------------|------------------2---------------|---------------0-----------------

Stave 10:

E|----------0---------------2-------|----------------------------------|----------0---------------2-------
B|----------2---------------2-------|--------------------------3-------|----------1---------------1-------
G|----------2---------------2-------|-------5--5----5--4------------0--|----------0------------1--2-------
D|-------2---------------4-------4--|-------4--4----4--3---------------|-------2----------0------------0--
A|--0------------0------------------|----------------------------------|--3------------3------------------
E|------------------2---------------|--4-------4----4--3----3----------|----------------------------------

Stave 11:

E|--------------------------------|----------0-----------------------|----------------------0--------0-----
B|--------4------------3----------|----------1------------1-------1--|-----------2-------------5--------0--
G|--5-------------4-------4-------|----------0------------0-------0--|--------0-----0----------------------
D|--------------------------------|-------2--------------------------|-----2-----------2/5--------5--------
A|-----------------------------0--|--3------------3--2-------1-------|--0----------------------------------
E|--4--4-------0--3---------------|----------------------------------|-------------------------------------

Stave 12:

E|----------1-------1----1----------|------------------1---------------|----------0-----------------------
B|----------1-----------------------|----------1------------1----------|----------1-----------------------
G|-------2--2---------------2-------|--1------------1----------1-------|----------0----0--5-------4-------
D|--3------------3---------------3--|-------3-----------------------0--|-------2----------4-------3----0--
A|----------------------------------|----------------------------------|--3-------------------------------
E|----------------------------------|----------------------------------|------------------4----0--3-------

Stave 13:

E|----------0---------------0-------|----------0---------------2-------|-----------------------------------
B|----------1---------------1-------|----------1---------------1-------|------------4-------------3--------
G|----------0---------------0-------|----------0------------2--2-------|--5------------5-------------4-----
D|-------2---------------2-------2--|-------2----------1------------0--|--4---------------4-------------3--
A|--3------------0------------------|--3------------3------------------|-----------------------------------
E|------------------3---------------|----------------------------------|--4----4-------------3-------------

Stave 14:

E|--------0-----------------------|-----------------------------------|--------------------1---------------
B|--------1------------1-------1--|-------2----------5----------3-----|--------0----------------1----------
G|--------0------------0-------0--|----------0----------0----------0--|-----------0--2-------------2-------
D|-----2--------------------------|-------------2/5--------5\4--------|--2--3-----------3---------------3--
A|--3----------3--2-------1-------|--0--------------------------------|------------------------------------
E|--------------------------------|-----------------------------------|------------------------------------

Stave 15:

E|----------1---------------1-------|----------0-----------------------|--------0---------------0-------|--
B|---------------1----------1-------|----------1-----------------------|--------1--------------------0--|--
G|--1---------------1-------1-------|----------0----0--5-------4-------|--------0------------1----------|--
D|-------3---------------3-------0--|-------2----------4-------3----0--|-----2--------------------------|--
A|----------------------------------|--3-------------------------------|--3----------3------------------|--
E|----------------------------------|------------------4----0--3-------|----------------0---------------|--

Stave 16:

E|--------0---------------2-------|----------2---------------0-------|----------0---------------2-------|--
B|--------2---------------2-------|----------3---------------0-------|----------2---------------2-------|--
G|--------2---------------2-------|-------2--2---------------1-------|----------2---------------2-------|--
D|-----2---------------4-------4--|-------4--4------------2----------|-------2---------------4-------4--|--
A|--0----------0------------------|--2------------2------------------|--0------------0------------------|--
E|----------------2---------------|------------------0------------0--|------------------2---------------|--

Stave 17:

E|-----2------------------0-------|--------0---------------2-------|-------2--2--------------------0--|--
B|-----3---------------8-------0--|--------2---------------2-------|-------3--3---------------3/5-----|--
G|-----2---------------7----------|--------2---------------2-------|-------2--2----------2/4----------|--
D|-----4--4-----------------------|-----2---------------4-------4--|-------4--4-----------------------|--
A|--2----------2------------------|--0----------0------------------|--2------------2------------------|--
E|----------------0---------------|----------------2---------------|------------------0---------------|--

Stave 18:

E|--------0---------------2-------|----------------------------------|--------0-----------2-------|--
B|--------2---------------2-------|----------------------------------|--------1-----------1-------|--
G|--------2---------------2-------|-------5--5----5--4----4--4-------|--------0--------2--2-------|--
D|-----2---------------4-------4--|-------4--4----4--3----3--3-------|-----2--------1----------0--|--
A|--0----------0------------------|-------------------------------0--|--3--------3----------------|--
E|----------------2---------------|--4------------4--3---------------|----------------------------|--

Stave 19:

E|--------0-----------2-----|--------------------------|----------------------------------|--
B|--------1-----------1-----|--------4--------3--------|-------1---------------1-------1--|--
G|--------0--------2--2-----|--5-----------4-----4-----|----------0------------0-------0--|--
D|-----2--------1--------0--|--4--------4--------------|---------------2------------------|--
A|--3--------3--------------|-----------------------0--|--3---------------2-------1-------|--
E|--------------------------|--4--4--------3-----------|----------------------------------|--

Stave 20:

E|-----------------------------------|-------------------------1----------|--------------1-----------|--
B|-------2----------5----------3-----|--------------1-------------1-------|--------1--------1--------|--
G|----------0----------0----------0--|--------0--2-----2------------------|--1--------1--------1-----|--
D|-------------2/5--------5\4--------|--2--3--------------3------------3--|-----3-----------------0--|--
A|--0--------------------------------|------------------------------------|--------------------------|--
E|-----------------------------------|------------------------------------|--------------------------|--

Stave 21:

E|----------0-----------------------|----------0---------------2-------|-------------------------------|--
B|----------1-----------------------|----------1---------------1-------|-------4---------------3-------|--
G|----------0-------5-------4-------|----------0------------2--2-------|--5-------5-------4------------|--
D|-------2-------0--4-------3----0--|-------2----------1------------0--|--4------------4---------------|--
A|--3-------------------------------|--3------------3------------------|----------------------------0--|--
E|------------------4----0--3-------|----------------------------------|--4---------------3------------|--

Stave 22:

E|----------0---------------2-------|-------------------------------|----------0---------------2-------|--
B|----------1---------------1-------|-------4---------------3-------|----------1---------------1-------|--
G|----------0------------2--2-------|--5-------5-------4------------|----------0------------2--2-------|--
D|-------2----------1------------0--|--4------------4---------------|-------2----------1------------0--|--
A|--3------------3------------------|----------------------------0--|--3------------3------------------|--
E|----------------------------------|--4---------------3------------|----------------------------------|--

Stave 23:

E|-------------------------------|-------------------------2--2-------|-------------------------------|--
B|-------4---------------3-------|--------------1----------1--1-------|-------4---------------3-------|--
G|--5-------5-------4------------|-----------------0-------2--2-------|--5-------5----4---------------|--
D|--4------------4---------------|--------0--2--------1------------0--|--4----------------------------|--
A|----------------------------0--|--2--3------------------------------|----------------------------0--|--
E|--4---------------3------------|------------------------------------|--4------------3--3------------|--

Stave 24:

E|----------0---------------2-------|----------------------------------|-----|--
B|----------1---------------1-------|-------4---------------3----------|--1--|--
G|----------0------------2--2-------|--5-------5-------4-------4-------|--0--|--
D|-------2----------1------------0--|--4----------------------------3--|--2--|--
A|--3------------3------------------|----------------------------------|--3--|--
E|----------------------------------|--4------------0--3---------------|-----|--

http://www.guitartabcreator.com
Guitar Tab Creator is intended to store guitar tab created through the tool. It currently does not support in-line text editing. Any text you place in here will be lost. If you need to comment on your tab, please use the "Tab Notes" section located below.