Sound will begin in 5 seconds

First

01234567891011121314151617181920212223
E
B
G
D
A
E
B
0 1 2 3 4 5 6 7 8 9 10 11 12 13 14 15 16 17 18 19 20 21 22 23
Song Science #1: How Pros Use 6 Chords to Write Hit Songs
(/) Slide Up  (\) Slide Down  (h) Hammer On  (p) Pull Off  (b) Bend (r) Release (v) Vibrato

Stave 1:

E|--------------------------------------------5-------5--------------------------12--10--------------------
B|---------------------------------2b3--0--7-----8/8-----5-------------7\5--7/9----------12--10--------11--
G|----------------------1/2--3--4---------------------------8--7--5b6----------------------------12p9------
D|-----------1/2--3--4-------------------------------------------------------------------------------------
A|--0--3--4------------------------------------------------------------------------------------------------
E|---------------------------------------------------------------------------------------------------------

Stave 2:

E|----------------------------------------------------------------------------------------------------------
B|-----11-------9-------------------------------------------------------2-----------------5--4-----4-----2--
G|--9------9\7-----7----------------------------------------------------2-----0-----------6--3-----3-----2--
D|--------------------9--8p7-----5h6------------------------------------------0--5--7--7--------5-----5-----
A|----------------------------7-------7--5-----------------0--0--3h4-------4--------------------------------
E|------------------------------------------7--6--5--0--3---------------------------------------------------

Stave 3:

E|-----------------------------------------------------------------------------------------------7-----
B|--0-----0------------------------------------------------------------------------------------------7--
G|--0-----0------------------------------------------------------------------4--4--4--4--6--4-----------
D|----2-----2--1p0-------2--------------------------------------2--4--5--6--------------------6--------
A|------------------3h4-----3--0--2--0--------------2--2--3--4-----------------------------------------
E|--------------------------------------0--2--3--4-----------------------------------------------------

Stave 4:

E|--0--0--0-----0--0-----0--3--0--0--0-------------------------------------
B|--5--3--3--3--2--2--2--0--4--5-----0--3p0--0-----------------------------
G|---------------------------------------------3--2p0---------------------
D|-----------------------------------------------------2p0----------------
A|----------------------------------------------------------2--1p0--------
E|------------------------------------------------------------------2--2--

Stave 5:

E|--5--8--0-------------------0--------------------------------------------------------------------------
B|-----------4p3--------3--4-----4p2--3--2--1--0--1/2----------------------------------------------------
G|----------------5--6---------------------------------2p0-----------------------------------------------
D|----------------------------------------------------------2--3p0--0-------2----------------------------
A|---------------------------------------------------------------------3h4-----3p2--0--2--0--------------
E|-------------------------------------------------------------------------------------------2--0--3--2--

Stave 6:

E|---------------------------4-------4-----4-------4-------4-------4-------4-------5--3--2p0-----0-------
B|---------------------------5p0-----5--7--5p0-----5p0-----5p0-----5p0-----5--1/2-------------3-----1/2--
G|---------------------4--6-------7-------------7-------7-------7-------7--------------------------------
D|-----------2p0--4/6------------------------------------------------------------------------------------
A|-----2--4----------------------------------------------------------------------------------------------
E|--4----------------------------------------------------------------------------------------------------

Stave 7:

E|---------------------------------3-------5-------9--12--9--10--9---------------------------------------
B|---------------------------2--4-------------6/9-------------------12--11p0--10--8--7--9--12\10--8--10--
G|--2--0---------------2--0-----------4/6----------------------------------------------------------------
D|--------2--1p0-----------------------------------------------------------------------------------------
A|----------------3h4------------------------------------------------------------------------------------
E|-------------------------------------------------------------------------------------------------------

Stave 8:

E|------------------------7-----------------------------------------------
B|--8-----8--------7--10-----10--8--7--9----------------------------------
G|-----9--------8-------------------------9--7----------------------------
D|-----------9----------------------------------9--8--7--5h6--------------
A|------------------------------------------------------------7--5--3--4--
E|------------------------------------------------------------------------

Stave 9:

E|--0------0-------0----------0----------0-------0-----0-----------0--------------------------
B|--13h14--12------11h12------10---------7h8-----7-----5--5--3-----1/2-------2--1p0-----------
G|--_---------14---------13------12--9-------7-----6-----------4-------2p0-------------------
D|--_----------------------------------------------------------------------------------------
A|--_-------------------------------------------------------------------------------0--3--0--
E|--_----------------------------------------------------------------------------------------

Stave 10:

E|-----------------------------------------------------------------
B|--------------------------------------------------------------5--
G|-----------------------------------------------------------------
D|-----2-------------2-----0-----------0-----2-----0-------4/6-----
A|-----------2p0--------------2--0--------------------2p0----------
E|--0-----0-------3-----3-----------3-----3-----3------------------

Stave 11:

E|----------------------------------------------------------------------------------------------
B|-------2-----2-----------2-----0----------0-----0----------2-----0-----2-----2-------0-----0--
G|-------0-----0-----------2-----0----------0-----0----------2-----0-----2-----2-------0-----0--
D|--2/4-----4-----4--2--4-----4-----4--2h4-----4-----4--2h4-----4-----4-----4-----2h4-----4-----
A|----------------------------------------------------------------------------------------------
E|----------------------------------------------------------------------------------------------

Stave 12:

E|--3\2p0-------------------------------------------------------12--
B|---------3\2p0------------------------------------------------12--
G|----------------3\2p0-----------------------------------------11--
D|-----------------------2p0------------------------------------11--
A|----------------------------2--1p0-------0--1p0/2\1---------------
E|------------------------------------3h4--------------0--3--0------

http://www.guitartabcreator.com
Guitar Tab Creator is intended to store guitar tab created through the tool. It currently does not support in-line text editing. Any text you place in here will be lost. If you need to comment on your tab, please use the "Tab Notes" section located below.