Sound will begin in 5 seconds

laaa

01234567891011121314151617181920212223
E
B
G
D
A
E
B
0 1 2 3 4 5 6 7 8 9 10 11 12 13 14 15 16 17 18 19 20 21 22 23
Song Science #1: How Pros Use 6 Chords to Write Hit Songs
(/) Slide Up  (\) Slide Down  (h) Hammer On  (p) Pull Off  (b) Bend (r) Release (v) Vibrato

Stave 1:

E|--------------0--------------4--------------------------------------------------------------------------------------------------------------
B|--0--------1-----1--------4--------9--------5------------------------------------10--15-----------------------------------------------------
G|--------3-----------3--------------------7--------------6--7--9----------10--------------16--------------19------------------20-------------
D|-----2-----------------4--------------7--------8--6--4-----------12----------10----------------------18------------------19------15--14/17--
A|---------------------------------------------------------------------13----------------------17--17----------21--21--21---------------------
E|--------------------------------7-----------------------------------------------------------------------------------------------------------

Stave 2:

E|------------------21--21--19------18--------------------------------------------------------------------------------------------------
B|------------------------------17----------18----------19------16--14------------------------------------------------------------------
G|--14v--15--18p16----------------------19----------------------------------------------17----------------------20----------------------
D|----------------------------------------------20--17------15----------------------18------17--19----------20------21------------------
A|--------------------------------------------------------------------------16--17------------------19--18--------------21--------------
E|----------------------------------------------------------------------16--------------------------------------------------------------

Stave 3:

E|--------------------------------------------------------------------------------------------------------------------------------
B|-----------9--------------------------------------------------------------------------------------------------------------------
G|--------8-----10---------------------------6-------------------12--11--10--9--8--7----------------------------------------------
D|-----7------------11--------------------------7------------11-----------------------13--14--15--16--17--18--19--20--21--21--21--
A|--6-------------------12--11--10--9--8--7--------8-----10-----------------------------------------------------------------------
E|----------------------------------------------------9---------------------------------------------------------------------------

Stave 4:

E|-----------------------------------------------------7------------------------------------------------------------------------
B|--------------------------------------------------7---------------------------------------------------------------------------
G|--0-----1-----2-----3-----4-----5-----6-----7-----------------8-----9-----10------11------12------14------13------15----------
D|-----0-----1-----2-----3-----4-----5-----6-----7-----------------8-----9------10------11------12------14------13------15------
A|--------------------------------------------------------7-----------------------------------------------------------------19--
E|-----------------------------------------------------------7------------------------------------------------------------------

Stave 5:

E|------------------
B|--------8---------
G|--2--2-----11-----
D|------------------
A|---------------12h
E|------------------

http://www.guitartabcreator.com
Guitar Tab Creator is intended to store guitar tab created through the tool. It currently does not support in-line text editing. Any text you place in here will be lost. If you need to comment on your tab, please use the "Tab Notes" section located below.