Sound will begin in 5 seconds

dde

01234567891011121314151617181920212223
E
B
G
D
A
E
B
0 1 2 3 4 5 6 7 8 9 10 11 12 13 14 15 16 17 18 19 20 21 22 23
Song Science #1: How Pros Use 6 Chords to Write Hit Songs
(/) Slide Up  (\) Slide Down  (h) Hammer On  (p) Pull Off  (b) Bend (r) Release (v) Vibrato

Stave 1:

E|--------------------------------------------14--12--------------------------------------11--13----------------------16--17-----------------
B|--------------------------7--8--10--12--13--------------------------------------11--11----------14----------15-----------------------------
G|--------------7-------------------------------------10----------13--10--11--------------------------------------17-------------------------
D|-----------------9--------------------------------------12--13--------------------------------------15-------------------------------------
A|-----0--2--7-----------5----------------------------------------------------11--------------------------15---------------------------------
E|--0-----------------9----------------------------------------------------------------------------------------------------------------------

Stave 2:

E|----------------------------------------------------------------------19--20------------------21-------------------------------------------
B|--------------------------------------------------17--------------------------21----------------------10-----------------------------------
G|-----------8--13----------10--12--------------16------18------------------------------------------11---------------------------------------
D|--9-----7-------------------------11------------------------------19-----------------------------------------------------------------------
A|-----8------------12--10--------------11--14--------------18--18---------------------------------------------------------------------------
E|----------------------------------------------------------------------------------21--21--20-----------------------------------------------

Stave 3:

E|--0--------------------------7--------------------------------14------------------------------20--21--
B|-----1--------------------7-----8-------------------------14------------------------------20----------
G|--------2--------------6-----------9------------------13----------15------------------19--------------
D|-----------3--------5-----------------10----------12------------------16----------18------------------
A|--------------4---------------------------11------------------------------17--------------------------
E|-----------------4----------------------------11------------------------------17----------------------

http://www.guitartabcreator.com
Guitar Tab Creator is intended to store guitar tab created through the tool. It currently does not support in-line text editing. Any text you place in here will be lost. If you need to comment on your tab, please use the "Tab Notes" section located below.