Wasteland Formatted

Chords

01234567891011121314151617181920212223
E
B
G
D
A
E
B
0 1 2 3 4 5 6 7 8 9 10 11 12 13 14 15 16 17 18 19 20 21 22 23
(/) Slide Up  (\) Slide Down  (h) Hammer On  (p) Pull Off  (b) Bend (r) Release (v) Vibrato

Intro 1

C |--------------------------------------------------------------------------
G |--------------------------------------------------------------------------
Eb|--------------------------------------------------------------------------
Bb|--------------------------------------------------------------------------
F |--------------------------------------------------------------------------
Bb|--0-----------------0--0--0-----------------0-----------------0--0--0-----

Intro 2

C |-------------------------------------------------------------------------------------------------------------------------------------------------
G |-------------------------------------------------------------------------------------------------------------------------------------------------
Eb|-------------------------------------------------------------------------------------------------------------------------------------------------
Bb|-------------------------------------------------------------------------------------------------------------------------------------------------
F |--8p0--------------7p0--------------3p0--------------5p0--------------------------------5--5--5--3--3--3-----------------------------------------
Bb|-------0--0--0--0-------0--0--0--0-------0--0--0--0-------0--0--0--0--3--3--3--3--3--3--------------------5--5--5--5--5--5--8--8--8--7--7--7-----

Intro 3

C |------------------------------------------------------------------------------------------------------------------------------------------------
G |------------------------------------------------------------------------------------------------------------------------------------------------
Eb|------------------------------------------------------------------------------------------------------------------------------------------------
Bb|------------------------------------------------------------------------------------------------------------------------------------------------
F |--8p0--------------7p0--------------3p0--------------5p0--------------------------------5--5--5--3--3--3--------------------0h1p0-----0h1p0-----
Bb|-------0--0--0--0-------0--0--0--0-------0--0--0--0-------0--0--0--0--3--3--3--3--3--3--------------------5--5--5--5--5--5---------3---------3--

Verse (x2)

C |----------------------------------------------------------------------------------------
G |----------------------------------------------------------------------------------------
Eb|----------------------------------------------------------------------------------------
Bb|---------------------------------------5------------------------------------------5-----
F |--------------------------------0h3p0--------------------------------------0h3p0--------
Bb|--0--0-----0--0--0--0-----0--0---------------0--0-----0--0--0--0-----0--0---------------



C |----------------------------------------------------------------------------------------
G |----------------------------------------------------------------------------------------
Eb|----------------------------------------------------------------------------------------
Bb|---------------------------------------2------------------------------------------1-----
F |--------------------------------0h3p0--------------------------------------0h3p0--------
Bb|--3--3-----3--3--3--3-----3--3---------------5--5-----5--5--5--5-----5--5---------------

PreChorus 1

C |---------------------------------------
G |---------------------------------------
Eb|---------------------------------------
Bb|---------------------------------------
F |---------------------------------------
Bb|--8--------8--------8--------8-----10--

Chorus

C |---------------------------------------------------------------------------------------------------------------
G |---------------------------------------------------------------------------------------------------------------
Eb|---------------------------------------------------------------------------------------------------------------
Bb|---------------------------------------------------------------------------------------------------------------
F |--------------------------------3-----3-----3------------------------------------------------------------------
Bb|--0--------0--------0--0--0--0-----------------0h3p0--5--------5-----5--0--0--0--8-----8-----0--8--7--5--------



C |---------------------------------------------------------------------------------------------------------------
G |---------------------------------------------------------------------------------------------------------------
Eb|---------------------------------------------------------------------------------------------------------------
Bb|---------------------------------------------------------------------------------8--8--8-----------8--8--8-----
F |--------------------------------3-----3-----3------------------------------------------------------------------
Bb|--0--------0--------0--0--0--0-----------------0h3p0--5--------5-----5--6--6--6-----------6--6--6--------------

Turnaround to Verse 2

C |------------------------------------------------------------------------------------------------------------------------------------------------
G |------------------------------------------------------------------------------------------------------------------------------------------------
Eb|------------------------------------------------------------------------------------------------------------------------------------------------
Bb|------------------------------------------------------------------------------------------------------------------------------------------------
F |--8p0--------------7p0--------------3p0--------------5p0--------------------------------5--5--5--3--3--3--------------------0h1p0-----0h1p0-----
Bb|-------0--0--0--0-------0--0--0--0-------0--0--0--0-------0--0--0--0--3--3--3--3--3--3--------------------5--5--5--5--5--5---------3---------3--

Verse 2 (same as Verse 1)

C |----------------------------------------------------------------------------------------
G |----------------------------------------------------------------------------------------
Eb|----------------------------------------------------------------------------------------
Bb|---------------------------------------5------------------------------------------5-----
F |--------------------------------0h3p0--------------------------------------0h3p0--------
Bb|--0--0-----0--0--0--0-----0--0---------------0--0-----0--0--0--0-----0--0---------------



C |----------------------------------------------------------------------------------------
G |----------------------------------------------------------------------------------------
Eb|----------------------------------------------------------------------------------------
Bb|---------------------------------------2------------------------------------------1-----
F |--------------------------------0h3p0--------------------------------------0h3p0--------
Bb|--3--3-----3--3--3--3-----3--3---------------5--5-----5--5--5--5-----5--5---------------

Prechorus 2

C |----------------------------------------------------------------
G |----------------------------------------------------------------
Eb|----------------------------------------------------------------
Bb|----------------------------------------------------------------
F |-------------------------------------------------0-----3-----5--
Bb|--8--------8--------8--------8-----10-----10--------------------

Chorus 2 (same as Chorus 1)

C |---------------------------------------------------------------------------------------------------------------
G |---------------------------------------------------------------------------------------------------------------
Eb|---------------------------------------------------------------------------------------------------------------
Bb|---------------------------------------------------------------------------------------------------------------
F |--------------------------------3-----3-----3------------------------------------------------------------------
Bb|--0--------0--------0--0--0--0-----------------0h3p0--5--------5-----5--0--0--0--8-----8-----0--8--7--5--------



C |---------------------------------------------------------------------------------------------------------------
G |---------------------------------------------------------------------------------------------------------------
Eb|---------------------------------------------------------------------------------------------------------------
Bb|---------------------------------------------------------------------------------8--8--8-----------8--8--8-----
F |--------------------------------3-----3-----3------------------------------------------------------------------
Bb|--0--------0--------0--0--0--0-----------------0h3p0--5--------5-----5--6--6--6-----------6--6--6--------------

Bridge

C |--------------------------------------------------------------------------------------------------------------------------------------------------
G |--------------------------------------------------------------------------------------------------------------------------------------------------
Eb|--------------------------------------------------------------------------------------------------------------------------------------------------
Bb|--------------------------------------------------------------------------------------------------------------------------------------------------
F |--7-----------------7-----------------7-----------------7-----------------------------------5--5--5--3--3--3--------------------6--6--6--5--5--5--
Bb|-----8--7--0--7--8-----8--7--0--7--8-----8--7--0--7--8-----8--7--0--7--8--0--0--0--0--0--0--------------------0--0--0--0--0--0--------------------



C |--------------------------------------------------------------------------------------------------------------------------------------------------
G |--------------------------------------------------------------------------------------------------------------------------------------------------
Eb|--------------------------------------------------------------------------------------------------------------------------------------------------
Bb|--------------------------------------------------------------------------------------------------------------------------------------------------
F |--7-----------------7-----------------7-----------------7-----------------------------------5--5--5--3--3--3--------------------8--8--8--5--5--5--
Bb|-----8--7--0--7--8-----8--7--0--7--8-----8--7--0--7--8-----8--7--0--7--8--0--0--0--0--0--0--------------------0--0--0--0--0--0--------------------



C |--------------------------------------------------------------------------------------------------------------------------------------------------
G |--------------------------------------------------------------------------------------------------------------------------------------------------
Eb|--------------------------------------------------------------------------------------------------------------------------------------------------
Bb|--------------------------------------------------------------------------------------------------------------------------------------------------
F |--7-----------------7-----------------7-----------------7-----------------------------------5--5--5--3--3--3--------------------6--6--6--5--5--5--
Bb|-----8--7--0--7--8-----8--7--0--7--8-----8--7--0--7--8-----8--7--0--7--8--0--0--0--0--0--0--------------------0--0--0--0--0--0--------------------



C |--------------------------------------------------------------------------------------------------------------------------------------------------------
G |--------------------------------------------------------------------------------------------------------------------------------------------------------
Eb|--------------------------------------------------------------------------------------------------------------------------------------------------------
Bb|--------------------------------------------------------------------------------------------------------------5--5--5--3--3--3--------------------------
F |--7-----------------7-----------------7-----------------7-----------------------------------5--5--5--3--3--3--------------------0--0--0--3--3--3--5-----
Bb|-----8--7--0--7--8-----8--7--0--7--8-----8--7--0--7--8-----8--7--0--7--8--0--0--0--0--0--0--------------------------------------------------------------

							http://www.guitartabcreator.com
Instruments
{"strings":[[[".",".",".",".",".",".",".",".",".",".",".",".",".",".",".",".",".",".",".",".",".",".",".","."],[".",".",".",".",".",".",".",".",".",".",".",".",".",".",".",".",".",".",".",".",".",".",".","."],[".",".",".",".",".",".",".",".",".",".",".",".",".",".",".",".",".",".",".",".",".",".",".","."],[".",".",".",".",".",".",".",".",".",".",".",".",".",".",".",".",".",".",".",".",".",".",".","."],[".",".",".",".",".",".",".",".",".",".",".",".",".",".",".",".",".",".",".",".",".",".",".","."],[0,".",".",".",".",".",0,0,0,".",".",".",".",".",0,".",".",".",".",".",0,0,0,"."]],[[".",".",".",".",".",".",".",".",".",".",".",".",".",".",".",".",".",".",".",".",".",".",".",".",".",".",".",".",".",".",".",".",".",".",".",".",".",".",".",".",".",".",".",".",".",".",".",".",".",".",".",".","."],[".",".",".",".",".",".",".",".",".",".",".",".",".",".",".",".",".",".",".",".",".",".",".",".",".",".",".",".",".",".",".",".",".",".",".",".",".",".",".",".",".",".",".",".",".",".",".",".",".",".",".",".","."],[".",".",".",".",".",".",".",".",".",".",".",".",".",".",".",".",".",".",".",".",".",".",".",".",".",".",".",".",".",".",".",".",".",".",".",".",".",".",".",".",".",".",".",".",".",".",".",".",".",".",".",".","."],[".",".",".",".",".",".",".",".",".",".",".",".",".",".",".",".",".",".",".",".",".",".",".",".",".",".",".",".",".",".",".",".",".",".",".",".",".",".",".",".",".",".",".",".",".",".",".",".",".",".",".",".","."],[8,"p",0,".",".",".",".",7,"p",0,".",".",".",".",3,"p",0,".",".",".",".",5,"p",0,".",".",".",".",".",".",".",".",".",".",5,5,5,3,3,3,".",".",".",".",".",".",".",".",".",".",".",".","."],[".",".",".",0,0,0,0,".",".",".",0,0,0,0,".",".",".",0,0,0,0,".",".",".",0,0,0,0,3,3,3,3,3,3,".",".",".",".",".",".",5,5,5,5,5,5,8,8,8,7,7,7,"."]],[[".",".",".",".",".",".",".",".",".",".",".",".",".",".",".",".",".",".",".",".",".",".",".",".",".",".",".",".",".",".",".",".",".",".",".",".",".",".",".",".",".",".",".",".",".",".",".",".",".",".",".",".",".",".",".",".",".","."],[".",".",".",".",".",".",".",".",".",".",".",".",".",".",".",".",".",".",".",".",".",".",".",".",".",".",".",".",".",".",".",".",".",".",".",".",".",".",".",".",".",".",".",".",".",".",".",".",".",".",".",".",".",".",".",".",".","."],[".",".",".",".",".",".",".",".",".",".",".",".",".",".",".",".",".",".",".",".",".",".",".",".",".",".",".",".",".",".",".",".",".",".",".",".",".",".",".",".",".",".",".",".",".",".",".",".",".",".",".",".",".",".",".",".",".","."],[".",".",".",".",".",".",".",".",".",".",".",".",".",".",".",".",".",".",".",".",".",".",".",".",".",".",".",".",".",".",".",".",".",".",".",".",".",".",".",".",".",".",".",".",".",".",".",".",".",".",".",".",".",".",".",".",".","."],[8,"p",0,".",".",".",".",7,"p",0,".",".",".",".",3,"p",0,".",".",".",".",5,"p",0,".",".",".",".",".",".",".",".",".",".",5,5,5,3,3,3,".",".",".",".",".",".",0,"h",1,"p",0,".",0,"h",1,"p",0,"."],[".",".",".",0,0,0,0,".",".",".",0,0,0,0,".",".",".",0,0,0,0,".",".",".",0,0,0,0,3,3,3,3,3,3,".",".",".",".",".",".",5,5,5,5,5,5,".",".",".",".",".",3,".",".",".",".",".",3]],[[".",".",".",".",".",".",".",".",".",".",".",".",".",".",".",".",".",".",".",".",".",".",".",".",".",".",".",".",".",".",".",".",".","."],[".",".",".",".",".",".",".",".",".",".",".",".",".",".",".",".",".",".",".",".",".",".",".",".",".",".",".",".",".",".",".",".",".","."],[".",".",".",".",".",".",".",".",".",".",".",".",".",".",".",".",".",".",".",".",".",".",".",".",".",".",".",".",".",".",".",".",".","."],[".",".",".",".",".",".",".",".",".",".",".",".",".",".",".",5,".",".",".",".",".",".",".",".",".",".",".",".",".",".",".",".",5,"."],[".",".",".",".",".",".",".",".",".",".",0,"h",3,"p",0,".",".",".",".",".",".",".",".",".",".",".",".",0,"h",3,"p",0,".","."],[0,0,".",0,0,0,0,".",0,0,".",".",".",".",".",".",".",0,0,".",0,0,0,0,".",0,0,".",".",".",".",".",".","."]],[[".",".",".",".",".",".",".",".",".",".",".",".",".",".",".",".",".",".",".",".",".",".",".",".",".",".",".",".",".",".",".",".",".","."],[".",".",".",".",".",".",".",".",".",".",".",".",".",".",".",".",".",".",".",".",".",".",".",".",".",".",".",".",".",".",".",".",".","."],[".",".",".",".",".",".",".",".",".",".",".",".",".",".",".",".",".",".",".",".",".",".",".",".",".",".",".",".",".",".",".",".",".","."],[".",".",".",".",".",".",".",".",".",".",".",".",".",".",".",2,".",".",".",".",".",".",".",".",".",".",".",".",".",".",".",".",1,"."],[".",".",".",".",".",".",".",".",".",".",0,"h",3,"p",0,".",".",".",".",".",".",".",".",".",".",".",".",0,"h",3,"p",0,".","."],[3,3,".",3,3,3,3,".",3,3,".",".",".",".",".",".",".",5,5,".",5,5,5,5,".",5,5,".",".",".",".",".",".","."]],[[".",".",".",".",".",".",".",".",".",".",".","."],[".",".",".",".",".",".",".",".",".",".",".","."],[".",".",".",".",".",".",".",".",".",".",".","."],[".",".",".",".",".",".",".",".",".",".",".","."],[".",".",".",".",".",".",".",".",".",".",".","."],[8,".",".",8,".",".",8,".",".",8,".",10]],[[".",".",".",".",".",".",".",".",".",".",".",".",".",".",".",".",".",".",".",".",".",".",".",".",".",".",".",".",".",".",".",".",".",".",".",".",".",".","."],[".",".",".",".",".",".",".",".",".",".",".",".",".",".",".",".",".",".",".",".",".",".",".",".",".",".",".",".",".",".",".",".",".",".",".",".",".",".","."],[".",".",".",".",".",".",".",".",".",".",".",".",".",".",".",".",".",".",".",".",".",".",".",".",".",".",".",".",".",".",".",".",".",".",".",".",".",".","."],[".",".",".",".",".",".",".",".",".",".",".",".",".",".",".",".",".",".",".",".",".",".",".",".",".",".",".",".",".",".",".",".",".",".",".",".",".",".","."],[".",".",".",".",".",".",".",".",".",".",3,".",3,".",3,".",".",".",".",".",".",".",".",".",".",".",".",".",".",".",".",".",".",".",".",".",".",".","."],[0,".",".",0,".",".",0,0,0,0,".",".",".",".",".",0,"h",3,"p",0,5,".",".",5,".",5,0,0,0,8,".",8,".",0,8,7,5,".","."]],[[".",".",".",".",".",".",".",".",".",".",".",".",".",".",".",".",".",".",".",".",".",".",".",".",".",".",".",".",".",".",".",".",".",".",".",".",".",".","."],[".",".",".",".",".",".",".",".",".",".",".",".",".",".",".",".",".",".",".",".",".",".",".",".",".",".",".",".",".",".",".",".",".",".",".",".",".",".","."],[".",".",".",".",".",".",".",".",".",".",".",".",".",".",".",".",".",".",".",".",".",".",".",".",".",".",".",".",".",".",".",".",".",".",".",".",".",".","."],[".",".",".",".",".",".",".",".",".",".",".",".",".",".",".",".",".",".",".",".",".",".",".",".",".",".",".",".",".",8,8,8,".",".",".",8,8,8,"."],[".",".",".",".",".",".",".",".",".",".",3,".",3,".",3,".",".",".",".",".",".",".",".",".",".",".",".",".",".",".",".",".",".",".",".",".",".",".","."],[0,".",".",0,".",".",0,0,0,0,".",".",".",".",".",0,"h",3,"p",0,5,".",".",5,".",5,6,6,6,".",".",".",6,6,6,".",".",".","."]],[[".",".",".",".",".",".",".",".",".",".",".",".",".",".",".",".",".",".",".",".",".",".",".",".",".",".",".",".",".",".",".",".",".",".",".",".",".",".",".",".",".",".",".",".",".",".",".",".",".",".",".",".",".",".",".",".",".","."],[".",".",".",".",".",".",".",".",".",".",".",".",".",".",".",".",".",".",".",".",".",".",".",".",".",".",".",".",".",".",".",".",".",".",".",".",".",".",".",".",".",".",".",".",".",".",".",".",".",".",".",".",".",".",".",".",".","."],[".",".",".",".",".",".",".",".",".",".",".",".",".",".",".",".",".",".",".",".",".",".",".",".",".",".",".",".",".",".",".",".",".",".",".",".",".",".",".",".",".",".",".",".",".",".",".",".",".",".",".",".",".",".",".",".",".","."],[".",".",".",".",".",".",".",".",".",".",".",".",".",".",".",".",".",".",".",".",".",".",".",".",".",".",".",".",".",".",".",".",".",".",".",".",".",".",".",".",".",".",".",".",".",".",".",".",".",".",".",".",".",".",".",".",".","."],[8,"p",0,".",".",".",".",7,"p",0,".",".",".",".",3,"p",0,".",".",".",".",5,"p",0,".",".",".",".",".",".",".",".",".",".",5,5,5,3,3,3,".",".",".",".",".",".",0,"h",1,"p",0,".",0,"h",1,"p",0,"."],[".",".",".",0,0,0,0,".",".",".",0,0,0,0,".",".",".",0,0,0,0,".",".",".",0,0,0,0,3,3,3,3,3,3,".",".",".",".",".",".",5,5,5,5,5,5,".",".",".",".",".",3,".",".",".",".",".",3]],[[".",".",".",".",".",".",".",".",".",".",".",".",".",".",".",".",".",".",".",".",".",".",".",".",".",".",".",".",".",".",".",".",".","."],[".",".",".",".",".",".",".",".",".",".",".",".",".",".",".",".",".",".",".",".",".",".",".",".",".",".",".",".",".",".",".",".",".","."],[".",".",".",".",".",".",".",".",".",".",".",".",".",".",".",".",".",".",".",".",".",".",".",".",".",".",".",".",".",".",".",".",".","."],[".",".",".",".",".",".",".",".",".",".",".",".",".",".",".",5,".",".",".",".",".",".",".",".",".",".",".",".",".",".",".",".",5,"."],[".",".",".",".",".",".",".",".",".",".",0,"h",3,"p",0,".",".",".",".",".",".",".",".",".",".",".",".",0,"h",3,"p",0,".","."],[0,0,".",0,0,0,0,".",0,0,".",".",".",".",".",".",".",0,0,".",0,0,0,0,".",0,0,".",".",".",".",".",".","."]],[[".",".",".",".",".",".",".",".",".",".",".",".",".",".",".",".",".",".",".",".",".",".",".",".",".",".",".",".",".",".",".",".",".","."],[".",".",".",".",".",".",".",".",".",".",".",".",".",".",".",".",".",".",".",".",".",".",".",".",".",".",".",".",".",".",".",".",".","."],[".",".",".",".",".",".",".",".",".",".",".",".",".",".",".",".",".",".",".",".",".",".",".",".",".",".",".",".",".",".",".",".",".","."],[".",".",".",".",".",".",".",".",".",".",".",".",".",".",".",2,".",".",".",".",".",".",".",".",".",".",".",".",".",".",".",".",1,"."],[".",".",".",".",".",".",".",".",".",".",0,"h",3,"p",0,".",".",".",".",".",".",".",".",".",".",".",".",0,"h",3,"p",0,".","."],[3,3,".",3,3,3,3,".",3,3,".",".",".",".",".",".",".",5,5,".",5,5,5,5,".",5,5,".",".",".",".",".",".","."]],[[".",".",".",".",".",".",".",".",".",".",".",".",".",".",".",".",".",".",".","."],[".",".",".",".",".",".",".",".",".",".",".",".",".",".",".",".",".",".",".","."],[".",".",".",".",".",".",".",".",".",".",".",".",".",".",".",".",".",".",".","."],[".",".",".",".",".",".",".",".",".",".",".",".",".",".",".",".",".",".",".","."],[".",".",".",".",".",".",".",".",".",".",".",".",".",".",".",0,".",3,".",5],[8,".",".",8,".",".",8,".",".",8,".",10,".",10,".",".",".",".",".","."]],[[".",".",".",".",".",".",".",".",".",".",".",".",".",".",".",".",".",".",".",".",".",".",".",".",".",".",".",".",".",".",".",".",".",".",".",".",".",".","."],[".",".",".",".",".",".",".",".",".",".",".",".",".",".",".",".",".",".",".",".",".",".",".",".",".",".",".",".",".",".",".",".",".",".",".",".",".",".","."],[".",".",".",".",".",".",".",".",".",".",".",".",".",".",".",".",".",".",".",".",".",".",".",".",".",".",".",".",".",".",".",".",".",".",".",".",".",".","."],[".",".",".",".",".",".",".",".",".",".",".",".",".",".",".",".",".",".",".",".",".",".",".",".",".",".",".",".",".",".",".",".",".",".",".",".",".",".","."],[".",".",".",".",".",".",".",".",".",".",3,".",3,".",3,".",".",".",".",".",".",".",".",".",".",".",".",".",".",".",".",".",".",".",".",".",".",".","."],[0,".",".",0,".",".",0,0,0,0,".",".",".",".",".",0,"h",3,"p",0,5,".",".",5,".",5,0,0,0,8,".",8,".",0,8,7,5,".","."]],[[".",".",".",".",".",".",".",".",".",".",".",".",".",".",".",".",".",".",".",".",".",".",".",".",".",".",".",".",".",".",".",".",".",".",".",".",".",".","."],[".",".",".",".",".",".",".",".",".",".",".",".",".",".",".",".",".",".",".",".",".",".",".",".",".",".",".",".",".",".",".",".",".",".",".",".",".",".","."],[".",".",".",".",".",".",".",".",".",".",".",".",".",".",".",".",".",".",".",".",".",".",".",".",".",".",".",".",".",".",".",".",".",".",".",".",".",".","."],[".",".",".",".",".",".",".",".",".",".",".",".",".",".",".",".",".",".",".",".",".",".",".",".",".",".",".",".",".",8,8,8,".",".",".",8,8,8,"."],[".",".",".",".",".",".",".",".",".",".",3,".",3,".",3,".",".",".",".",".",".",".",".",".",".",".",".",".",".",".",".",".",".",".",".",".",".",".","."],[0,".",".",0,".",".",0,0,0,0,".",".",".",".",".",0,"h",3,"p",0,5,".",".",5,".",5,6,6,6,".",".",".",6,6,6,".",".",".","."]],[[".",".",".",".",".",".",".",".",".",".",".",".",".",".",".",".",".",".",".",".",".",".",".",".",".",".",".",".",".",".",".",".",".",".",".",".",".",".",".",".",".",".",".",".",".",".",".","."],[".",".",".",".",".",".",".",".",".",".",".",".",".",".",".",".",".",".",".",".",".",".",".",".",".",".",".",".",".",".",".",".",".",".",".",".",".",".",".",".",".",".",".",".",".",".",".","."],[".",".",".",".",".",".",".",".",".",".",".",".",".",".",".",".",".",".",".",".",".",".",".",".",".",".",".",".",".",".",".",".",".",".",".",".",".",".",".",".",".",".",".",".",".",".",".","."],[".",".",".",".",".",".",".",".",".",".",".",".",".",".",".",".",".",".",".",".",".",".",".",".",".",".",".",".",".",".",".",".",".",".",".",".",".",".",".",".",".",".",".",".",".",".",".","."],[7,".",".",".",".",".",7,".",".",".",".",".",7,".",".",".",".",".",7,".",".",".",".",".",".",".",".",".",".",".",5,5,5,3,3,3,".",".",".",".",".",".",6,6,6,5,5,5],[".",8,7,0,7,8,".",8,7,0,7,8,".",8,7,0,7,8,".",8,7,0,7,8,0,0,0,0,0,0,".",".",".",".",".",".",0,0,0,0,0,0,".",".",".",".",".","."]],[[".",".",".",".",".",".",".",".",".",".",".",".",".",".",".",".",".",".",".",".",".",".",".",".",".",".",".",".",".",".",".",".",".",".",".",".",".",".",".",".",".",".",".",".",".",".",".","."],[".",".",".",".",".",".",".",".",".",".",".",".",".",".",".",".",".",".",".",".",".",".",".",".",".",".",".",".",".",".",".",".",".",".",".",".",".",".",".",".",".",".",".",".",".",".",".","."],[".",".",".",".",".",".",".",".",".",".",".",".",".",".",".",".",".",".",".",".",".",".",".",".",".",".",".",".",".",".",".",".",".",".",".",".",".",".",".",".",".",".",".",".",".",".",".","."],[".",".",".",".",".",".",".",".",".",".",".",".",".",".",".",".",".",".",".",".",".",".",".",".",".",".",".",".",".",".",".",".",".",".",".",".",".",".",".",".",".",".",".",".",".",".",".","."],[7,".",".",".",".",".",7,".",".",".",".",".",7,".",".",".",".",".",7,".",".",".",".",".",".",".",".",".",".",".",5,5,5,3,3,3,".",".",".",".",".",".",8,8,8,5,5,5],[".",8,7,0,7,8,".",8,7,0,7,8,".",8,7,0,7,8,".",8,7,0,7,8,0,0,0,0,0,0,".",".",".",".",".",".",0,0,0,0,0,0,".",".",".",".",".","."]],[[".",".",".",".",".",".",".",".",".",".",".",".",".",".",".",".",".",".",".",".",".",".",".",".",".",".",".",".",".",".",".",".",".",".",".",".",".",".",".",".",".",".",".",".",".",".",".","."],[".",".",".",".",".",".",".",".",".",".",".",".",".",".",".",".",".",".",".",".",".",".",".",".",".",".",".",".",".",".",".",".",".",".",".",".",".",".",".",".",".",".",".",".",".",".",".","."],[".",".",".",".",".",".",".",".",".",".",".",".",".",".",".",".",".",".",".",".",".",".",".",".",".",".",".",".",".",".",".",".",".",".",".",".",".",".",".",".",".",".",".",".",".",".",".","."],[".",".",".",".",".",".",".",".",".",".",".",".",".",".",".",".",".",".",".",".",".",".",".",".",".",".",".",".",".",".",".",".",".",".",".",".",".",".",".",".",".",".",".",".",".",".",".","."],[7,".",".",".",".",".",7,".",".",".",".",".",7,".",".",".",".",".",7,".",".",".",".",".",".",".",".",".",".",".",5,5,5,3,3,3,".",".",".",".",".",".",6,6,6,5,5,5],[".",8,7,0,7,8,".",8,7,0,7,8,".",8,7,0,7,8,".",8,7,0,7,8,0,0,0,0,0,0,".",".",".",".",".",".",0,0,0,0,0,0,".",".",".",".",".","."]],[[".",".",".",".",".",".",".",".",".",".",".",".",".",".",".",".",".",".",".",".",".",".",".",".",".",".",".",".",".",".",".",".",".",".",".",".",".",".",".",".",".",".",".",".",".",".",".",".",".","."],[".",".",".",".",".",".",".",".",".",".",".",".",".",".",".",".",".",".",".",".",".",".",".",".",".",".",".",".",".",".",".",".",".",".",".",".",".",".",".",".",".",".",".",".",".",".",".",".",".","."],[".",".",".",".",".",".",".",".",".",".",".",".",".",".",".",".",".",".",".",".",".",".",".",".",".",".",".",".",".",".",".",".",".",".",".",".",".",".",".",".",".",".",".",".",".",".",".",".",".","."],[".",".",".",".",".",".",".",".",".",".",".",".",".",".",".",".",".",".",".",".",".",".",".",".",".",".",".",".",".",".",".",".",".",".",".",".",5,5,5,3,3,3,".",".",".",".",".",".",".","."],[7,".",".",".",".",".",7,".",".",".",".",".",7,".",".",".",".",".",7,".",".",".",".",".",".",".",".",".",".",".",5,5,5,3,3,3,".",".",".",".",".",".",0,0,0,3,3,3,5,"."],[".",8,7,0,7,8,".",8,7,0,7,8,".",8,7,0,7,8,".",8,7,0,7,8,0,0,0,0,0,0,".",".",".",".",".",".",".",".",".",".",".",".",".",".",".",".",".",".",".","."]]],"numberofstrings":6,"notes":["C","G","DsEb","AsBb","F","AsBb"],"capo":0,"stringnotes":["C3","G2","Eb2","Bb1","F1","Bb0"],"comments":["Intro 1","Intro 2","Intro 3","Verse (x2)","","PreChorus 1","Chorus","","Turnaround to Verse 2","Verse 2 (same as Verse 1)","","Prechorus 2","Chorus 2 (same as Chorus 1)","","Bridge","","",""],"timing":[[null,"W",null,null,null,null,null,"W","W","W",null,null,null,null,null,"W",null,null,null,null,null,"W","W","W"],[null,"W",null,"W","W","W","W","W","W",null,"W","W","W","W","W","W",null,"W","W","W","W","W","W",null,"W","W","W","W","W","W","W","W","W","W","W","W","W","W","W","W","W","W","W","W","W","W","W","W","W","W","W","W","W"],[null,null,null,null,null,null,null,null,null,null,null,null,null,null,null,null,null,null,null,null,null,null,null,null,null,null,null,null,null,null,null,null,null,null,null,null,null,null,null,null,null,null,null,null,null,null,null,"W",null,"W",null,"W","W","W",null,"W",null,"W","W"],[],[null,"W","W",null,"W","W","W","W",null,"W","W","W",null,"W",null,"W","W",null,"W","W",null,"W","W","W","W",null,"W","W","W",null,"W",null,"W","W"],[null,"W",null,null,"W",null,null,"W",null,null,"W",null,"W"],[null,"W",null,null,"W",null,null,"W","W","W","W","W",null,"W",null,"W","W",null,"W",null,"W","W",null,null,"W",null,"W","W","W","W","W",null,"W",null,"W","W","W","W","W","W"],[null,null,null,null,null,null,null,null,null,null,null,null,null,null,null,null,null,null,null,null,null,null,null,null,null,null,null,"W","W","W","W","W","W","W","W","W","W","W","W"],[],[],[],[null,null,null,null,null,null,null,null,null,null,null,null,null,null,"W",null,"W",null,"W",null,"W"],[null,null,null,null,null,null,null,null,null,null,null,null,null,null,null,null,null,null,null,null,null,null,null,null,null,null,null,null,null,null,null,null,null,null,null,null,null,null,null,"W"],[],[],[null,null,null,null,null,null,null,null,null,null,null,null,null,null,null,null,null,null,null,null,null,null,null,null,null,null,null,null,null,null,null,null,null,null,null,null,null,null,null,null,null,null,null,null,null,null,null,null,"W"],[],[null,null,null,null,null,null,null,null,null,null,null,null,null,null,null,null,null,null,null,null,null,null,null,null,null,null,null,null,null,null,null,null,null,null,null,null,null,null,null,null,null,null,null,null,null,null,null,null,"W","W"]],"timingvisible":false,"tabcounter":50,"stave":17,"totalstaves":18,"instrument":"6guitar","selectedtuning":"Drop A#","version":"13"}

Member for

1 week 6 days
Submitted by rossXII on Thu, 2020-05-21 13:40