Brother

Chords

01234567891011121314151617181920212223
E
B
G
D
A
E
B
0 1 2 3 4 5 6 7 8 9 10 11 12 13 14 15 16 17 18 19 20 21 22 23
(/) Slide Up  (\) Slide Down  (h) Hammer On  (p) Pull Off  (b) Bend (r) Release (v) Vibrato

Intro

C |-----------------------------------------------------------
G |-----------------------------------------------------------
Eb|-----------------------------------------------------------
Bb|-----------------------------------------------------------
F |-----------------------------------------------------------
Bb|--0--0--0-----x--x--x--x--x--x--x--0-----------------------

Intro 2 (repeat once)

C |-----------------------------------------------------------------------------------------
G |-----------------------------------------------------------------------------------------
Eb|-----------------------------------------------------------------------------------------
Bb|-------------------5-------------------5-------------------5-----------------------------
F |--------------3p0-----------------3p0-----------------3p0--------------------------------
Bb|--0--0--0----------------0--0----------------0--0----------------0--0-----3--0--3--------



C |------------------------------------------------------------------------------------------
G |------------------------------------------------------------------------------------------
Eb|------------------------------------------------------------------------------------------
Bb|-------------------5-------------------5-------------------5------------------------------
F |--------------3p0-----------------3p0-----------------3p0----------------------3h5--------
Bb|--0--0--0----------------0--0----------------0--0----------------0--0-----3h5-------------

Verse (repeat once)

C |--------------------------------------------------
G |--------------------------------------------------
Eb|--------------------------------------------------
Bb|--------------------------------------------------
F |--------------------------------------------------
Bb|--0-----------3-----------5-----1-----0-----------

Prechorus

C |-----------------------------------------------------------------------------------------
G |-----------------------------------------------------------------------------------------
Eb|-----------------------------------------------------------------------------------------
Bb|-------------------5-------------------5-------------------5-----------------------------
F |--------------3p0-----------------3p0-----------------3p0--------------------------------
Bb|--0--0--0----------------0--0----------------0--0----------------0--0-----3--0--3--------



C |------------------------------------------------------------------------------------------
G |------------------------------------------------------------------------------------------
Eb|------------------------------------------------------------------------------------------
Bb|-------------------5-------------------5-------------------5------------------------------
F |--------------3p0-----------------3p0-----------------3p0----------------------3h5--------
Bb|--0--0--0----------------0--0----------------0--0----------------0--0-----3h5-------------

Chorus

C |-----------------------------------------------------------------------
G |-----------------------------------------------------------------------
Eb|-----------------------------------------------------------------------
Bb|-----------------------------------------------------------------------
F |-----------------------------------------------------1-----------------
Bb|--8-----8-----8--8-----0-----------3-----3-----x--x--------1--0--0-----



C |-----------------------------------------------------------------------
G |-----------------------------------------------------------------------
Eb|-----------------------------------------------------------------------
Bb|-----------------------------------------------------------------------
F |-----------------------------------------------------------------------
Bb|--8-----8-----8--8-----0-----------3-----3-----3--1--1--1--x--0--------

Bridge 1

C |-----------------------------------------------------------------------------------------------
G |-----------------------------------------------------------------------------------------------
Eb|-----------------------------------------------------------------------------------------------
Bb|-----------------------------------------------------------------------------------------------
F |-----------------------------------------------------------------------------------------------
Bb|--4v-----0--4--0--0--4v-----0--4--0--0--4v-----0--4--0--0--4v-----0--4--0--0--1--0--1/3/4\3\1--



C |------------------------------------------------------------------------------------------------------
G |------------------------------------------------------------------------------------------------------
Eb|------------------------------------------------------------------------------------------------------
Bb|------------------------------------------------------------------------------------------------------
F |------------------------------------------------------------------------------------------------------
Bb|--4v-----0--4--0--0--4v-----0--4--0--0--4v-----0--4--0--0--4v-----0--4--0--0--0--0--0--0--0--0--0--x--

Bridge 2

C |-------------------------------------------------------------------------------------------------------------------
G |-------------------------------------------------------------------------------------------------------------------
Eb|-------------------------------------------------------------------------------------------------------------------
Bb|-------------------------------------------------------------------------------------------------------------------
F |-------------------------------------------------------------------------------------------------------------------
Bb|--0--0--0-----0--0--0-----0--0--0-----0--0--0-----0--0--0-----0--0--0-----0--0--0-----0--0--0-----1--0--1/3/4\3\1--



C |-----------------------------------------------------------------------------------------------------------------
G |-----------------------------------------------------------------------------------------------------------------
Eb|-----------------------------------------------------------------------------------------------------------------
Bb|-----------------------------------------------------------------------------------------------------------------
F |-----------------------------------------------------------------------------------------------------------------
Bb|--0--0--0-----0--0--0-----0--0--0-----0--0--0-----0--0--0-----0--0--0-----0--0--0-----0--0--0-----1--0--3--5-----

Prechorus 2

C |-----------------------------------------
G |-----------------------------------------
Eb|-----------------------------------------
Bb|-----------------------------------------
F |-----------------------------------------
Bb|--0--------x--------x--------x-----------



C |--------------------------------------------------------------------------------------------------
G |--------------------------------------------------------------------------------------------------
Eb|--------------------------------------------------------------------------------------------------
Bb|--------------------------------------------------------------------------------------------------
F |--------------------------------------------------------------------------------------------------
Bb|--0--0--0--0--0--0--0--0--0--0--0--0--0--0--0--0--3--3--3--3--3--3--3--3--3--3--3--3--3--3--3--3--



C |--------------------------------------------------------------------------------
G |--------------------------------------------------------------------------------
Eb|--------------------------------------------------------------------------------
Bb|--------------------------------------------------------------------------------
F |--------------------------------------------------------------------------------
Bb|--5--5--5--5--5--5--5--5--5--5--5--5--5--5--5--5--5--5--5--5--5--5--5--5--5--x--

Ending

C |-----------------------------------------------------------------------------------------------
G |-----------------------------------------------------------------------------------------------
Eb|-----------------------------------------------------------------------------------------------
Bb|-----------------------------------------------------------------------------------------------
F |-----------------------------------------------------------------------------------------------
Bb|--4v-----0--4--0--0--4v-----0--4--0--0--4v-----0--4--0--0--4v-----0--4--0--0--1--0--1/3/4\3\1--



C |------------------------------------------------------------------------------------------------------
G |------------------------------------------------------------------------------------------------------
Eb|------------------------------------------------------------------------------------------------------
Bb|------------------------------------------------------------------------------------------------------
F |------------------------------------------------------------------------------------------------------
Bb|--4v-----0--4--0--0--4v-----0--4--0--0--4v-----0--4--0--0--4v-----0--4--0--0--0--0--0--0--0--0--0--x--



C |-------------------------------------------------------------------------------------------------------------------
G |-------------------------------------------------------------------------------------------------------------------
Eb|-------------------------------------------------------------------------------------------------------------------
Bb|-------------------------------------------------------------------------------------------------------------------
F |-------------------------------------------------------------------------------------------------------------------
Bb|--0--0--0-----0--0--0-----0--0--0-----0--0--0-----0--0--0-----0--0--0-----0--0--0-----0--0--0-----1--0--1/3/4\3\1--



C |-------------------------------------------------------------------------------------------------------------------
G |-------------------------------------------------------------------------------------------------------------------
Eb|-------------------------------------------------------------------------------------------------------------------
Bb|-------------------------------------------------------------------------------------------------------------------
F |-------------------------------------------------------------------------------------------------------------------
Bb|--0--0--0-----0--0--0-----0--0--0-----0--0--0-----0--0--0-----0--0--0-----0--0--0-----0--0--0-----1--0--1/3/4\3\1--



C |-----------------------------------------------------------------------------
G |-----------------------------------------------------------------------------
Eb|-----------------------------------------------------------------------------
Bb|-----------------------------------------------------------------------------
F |-----------------------------------------------------------------------------
Bb|--0--------0--------0--------0-----------0--0--0-----0--0--0-----0--0--0-----

							http://www.guitartabcreator.com
Instruments
{"strings":[[["_","_",".",".",".",".",".",".",".",".",".",".",".",".",".",".",".",".","."],["_","_",".",".",".",".",".",".",".",".",".",".",".",".",".",".",".",".","."],["_","_",".",".",".",".",".",".",".",".",".",".",".",".",".",".",".",".","."],["_","_",".",".",".",".",".",".",".",".",".",".",".",".",".",".",".",".","."],["_","_",".",".",".",".",".",".",".",".",".",".",".",".",".",".",".",".","."],[0,0,0,".","x","x","x","x","x","x","x",0,".",".",".",".",".",".","."]],[[".",".",".",".",".",".",".",".",".",".",".",".",".",".",".",".",".",".",".",".",".",".",".",".",".",".",".",".",".",".",".",".","."],[".",".",".",".",".",".",".",".",".",".",".",".",".",".",".",".",".",".",".",".",".",".",".",".",".",".",".",".",".",".",".",".","."],[".",".",".",".",".",".",".",".",".",".",".",".",".",".",".",".",".",".",".",".",".",".",".",".",".",".",".",".",".",".",".",".","."],[".",".",".",".",".",".",".",5,".",".",".",".",".",".",".",5,".",".",".",".",".",".",".",5,".",".",".",".",".",".",".",".","."],[".",".",".",".",3,"p",0,".",".",".",".",".",3,"p",0,".",".",".",".",".",3,"p",0,".",".",".",".",".",".",".",".",".","."],[0,0,0,".",".",".",".",".",".",0,0,".",".",".",".",".",".",0,0,".",".",".",".",".",".",0,0,".",3,0,3,".","."]],[[".",".",".",".",".",".",".",".",".",".",".",".",".",".",".",".",".",".",".",".",".",".",".",".",".",".",".",".",".",".",".",".",".",".",".","."],[".",".",".",".",".",".",".",".",".",".",".",".",".",".",".",".",".",".",".",".",".",".",".",".",".",".",".",".",".",".",".",".",".",".",".","."],[".",".",".",".",".",".",".",".",".",".",".",".",".",".",".",".",".",".",".",".",".",".",".",".",".",".",".",".",".",".",".",".",".",".",".","."],[".",".",".",".",".",".",".",5,".",".",".",".",".",".",".",5,".",".",".",".",".",".",".",5,".",".",".",".",".",".",".",".",".",".",".","."],[".",".",".",".",3,"p",0,".",".",".",".",".",3,"p",0,".",".",".",".",".",3,"p",0,".",".",".",".",".",".",".",".",3,"h",5,".","."],[0,0,0,".",".",".",".",".",".",0,0,".",".",".",".",".",".",0,0,".",".",".",".",".",".",0,0,".",3,"h",5,".",".",".",".","."]],[[".",".",".",".",".",".",".",".",".",".",".",".",".",".",".","."],[".",".",".",".",".",".",".",".",".",".",".",".",".",".",".","."],[".",".",".",".",".",".",".",".",".",".",".",".",".",".",".","."],[".",".",".",".",".",".",".",".",".",".",".",".",".",".",".","."],[".",".",".",".",".",".",".",".",".",".",".",".",".",".",".","."],[0,".",".",".",3,".",".",".",5,".",1,".",0,".",".","."]],[[".",".",".",".",".",".",".",".",".",".",".",".",".",".",".",".",".",".",".",".",".",".",".",".",".",".",".",".",".",".",".",".","."],[".",".",".",".",".",".",".",".",".",".",".",".",".",".",".",".",".",".",".",".",".",".",".",".",".",".",".",".",".",".",".",".","."],[".",".",".",".",".",".",".",".",".",".",".",".",".",".",".",".",".",".",".",".",".",".",".",".",".",".",".",".",".",".",".",".","."],[".",".",".",".",".",".",".",5,".",".",".",".",".",".",".",5,".",".",".",".",".",".",".",5,".",".",".",".",".",".",".",".","."],[".",".",".",".",3,"p",0,".",".",".",".",".",3,"p",0,".",".",".",".",".",3,"p",0,".",".",".",".",".",".",".",".",".","."],[0,0,0,".",".",".",".",".",".",0,0,".",".",".",".",".",".",0,0,".",".",".",".",".",".",0,0,".",3,0,3,".","."]],[[".",".",".",".",".",".",".",".",".",".",".",".",".",".",".",".",".",".",".",".",".",".",".",".",".",".",".",".",".",".",".",".",".",".",".","."],[".",".",".",".",".",".",".",".",".",".",".",".",".",".",".",".",".",".",".",".",".",".",".",".",".",".",".",".",".",".",".",".",".",".",".","."],[".",".",".",".",".",".",".",".",".",".",".",".",".",".",".",".",".",".",".",".",".",".",".",".",".",".",".",".",".",".",".",".",".",".",".","."],[".",".",".",".",".",".",".",5,".",".",".",".",".",".",".",5,".",".",".",".",".",".",".",5,".",".",".",".",".",".",".",".",".",".",".","."],[".",".",".",".",3,"p",0,".",".",".",".",".",3,"p",0,".",".",".",".",".",3,"p",0,".",".",".",".",".",".",".",".",3,"h",5,".","."],[0,0,0,".",".",".",".",".",".",0,0,".",".",".",".",".",".",0,0,".",".",".",".",".",".",0,0,".",3,"h",5,".",".",".",".","."]],[[".",".",".",".",".",".",".",".",".",".",".",".",".",".",".",".",".",".",".",".",".",".","."],[".",".",".",".",".",".",".",".",".",".",".",".",".",".",".",".",".",".",".",".",".",".","."],[".",".",".",".",".",".",".",".",".",".",".",".",".",".",".",".",".",".",".",".",".",".","."],[".",".",".",".",".",".",".",".",".",".",".",".",".",".",".",".",".",".",".",".",".",".","."],[".",".",".",".",".",".",".",".",".",".",".",".",".",".",".",".",".",1,".",".",".",".","."],[8,".",8,".",8,8,".",0,".",".",".",3,".",3,".","x","x",".",".",1,0,0,"."]],[[".",".",".",".",".",".",".",".",".",".",".",".",".",".",".",".",".",".",".",".",".",".","."],[".",".",".",".",".",".",".",".",".",".",".",".",".",".",".",".",".",".",".",".",".",".","."],[".",".",".",".",".",".",".",".",".",".",".",".",".",".",".",".",".",".",".",".",".",".","."],[".",".",".",".",".",".",".",".",".",".",".",".",".",".",".",".",".",".",".",".",".",".","."],[".",".",".",".",".",".",".",".",".",".",".",".",".",".",".",".",".",".",".",".",".",".","."],[8,".",8,".",8,8,".",0,".",".",".",3,".",3,".",3,1,1,1,"x",0,".","."]],[[".",".",".",".",".",".",".",".",".",".",".",".",".",".",".",".",".",".",".",".",".",".",".",".",".",".",".",".",".",".",".",".",".",".",".",".",".",".","."],[".",".",".",".",".",".",".",".",".",".",".",".",".",".",".",".",".",".",".",".",".",".",".",".",".",".",".",".",".",".",".",".",".",".",".",".",".",".","."],[".",".",".",".",".",".",".",".",".",".",".",".",".",".",".",".",".",".",".",".",".",".",".",".",".",".",".",".",".",".",".",".",".",".",".",".",".",".","."],[".",".",".",".",".",".",".",".",".",".",".",".",".",".",".",".",".",".",".",".",".",".",".",".",".",".",".",".",".",".",".",".",".",".",".",".",".",".","."],[".",".",".",".",".",".",".",".",".",".",".",".",".",".",".",".",".",".",".",".",".",".",".",".",".",".",".",".",".",".",".",".",".",".",".",".",".",".","."],[4,"v",".",0,4,0,0,4,"v",".",0,4,0,0,4,"v",".",0,4,0,0,4,"v",".",0,4,0,0,1,0,1,"/",3,"/",4,"\\",3,"\\",1]],[[".",".",".",".",".",".",".",".",".",".",".",".",".",".",".",".",".",".",".",".",".",".",".",".",".",".",".",".",".",".",".",".",".",".",".","."],[".",".",".",".",".",".",".",".",".",".",".",".",".",".",".",".",".",".",".",".",".",".",".",".",".",".",".",".",".",".",".",".",".",".",".","."],[".",".",".",".",".",".",".",".",".",".",".",".",".",".",".",".",".",".",".",".",".",".",".",".",".",".",".",".",".",".",".",".",".",".",".","."],[".",".",".",".",".",".",".",".",".",".",".",".",".",".",".",".",".",".",".",".",".",".",".",".",".",".",".",".",".",".",".",".",".",".",".","."],[".",".",".",".",".",".",".",".",".",".",".",".",".",".",".",".",".",".",".",".",".",".",".",".",".",".",".",".",".",".",".",".",".",".",".","."],[4,"v",".",0,4,0,0,4,"v",".",0,4,0,0,4,"v",".",0,4,0,0,4,"v",".",0,4,0,0,0,0,0,0,0,0,0,"x"]],[[".",".",".",".",".",".",".",".",".",".",".",".",".",".",".",".",".",".",".",".",".",".",".",".",".",".",".",".",".",".",".",".",".",".",".",".",".",".",".",".",".",".","."],[".",".",".",".",".",".",".",".",".",".",".",".",".",".",".",".",".",".",".",".",".",".",".",".",".",".",".",".",".",".",".",".",".",".",".",".",".",".",".",".",".",".","."],[".",".",".",".",".",".",".",".",".",".",".",".",".",".",".",".",".",".",".",".",".",".",".",".",".",".",".",".",".",".",".",".",".",".",".",".",".",".",".",".",".",".","."],[".",".",".",".",".",".",".",".",".",".",".",".",".",".",".",".",".",".",".",".",".",".",".",".",".",".",".",".",".",".",".",".",".",".",".",".",".",".",".",".",".",".","."],[".",".",".",".",".",".",".",".",".",".",".",".",".",".",".",".",".",".",".",".",".",".",".",".",".",".",".",".",".",".",".",".",".",".",".",".",".",".",".",".",".",".","."],[0,0,0,".",0,0,0,".",0,0,0,".",0,0,0,".",0,0,0,".",0,0,0,".",0,0,0,".",0,0,0,".",1,0,1,"/",3,"/",4,"\\",3,"\\",1]],[[".",".",".",".",".",".",".",".",".",".",".",".",".",".",".",".",".",".",".",".",".",".",".",".",".",".",".",".",".",".",".",".",".",".",".",".","."],[".",".",".",".",".",".",".",".",".",".",".",".",".",".",".",".",".",".",".",".",".",".",".",".",".",".",".",".",".",".",".",".",".",".",".",".","."],[".",".",".",".",".",".",".",".",".",".",".",".",".",".",".",".",".",".",".",".",".",".",".",".",".",".",".",".",".",".",".",".",".",".",".",".","."],[".",".",".",".",".",".",".",".",".",".",".",".",".",".",".",".",".",".",".",".",".",".",".",".",".",".",".",".",".",".",".",".",".",".",".",".","."],[".",".",".",".",".",".",".",".",".",".",".",".",".",".",".",".",".",".",".",".",".",".",".",".",".",".",".",".",".",".",".",".",".",".",".",".","."],[0,0,0,".",0,0,0,".",0,0,0,".",0,0,0,".",0,0,0,".",0,0,0,".",0,0,0,".",0,0,0,".",1,0,3,5,"."]],[[".",".",".",".",".",".",".",".",".",".",".",".","."],[".",".",".",".",".",".",".",".",".",".",".",".","."],[".",".",".",".",".",".",".",".",".",".",".",".","."],[".",".",".",".",".",".",".",".",".",".",".",".","."],[".",".",".",".",".",".",".",".",".",".",".",".","."],[0,".",".","x",".",".","x",".",".","x",".",".","."]],[[".",".",".",".",".",".",".",".",".",".",".",".",".",".",".",".",".",".",".",".",".",".",".",".",".",".",".",".",".",".",".","."],[".",".",".",".",".",".",".",".",".",".",".",".",".",".",".",".",".",".",".",".",".",".",".",".",".",".",".",".",".",".",".","."],[".",".",".",".",".",".",".",".",".",".",".",".",".",".",".",".",".",".",".",".",".",".",".",".",".",".",".",".",".",".",".","."],[".",".",".",".",".",".",".",".",".",".",".",".",".",".",".",".",".",".",".",".",".",".",".",".",".",".",".",".",".",".",".","."],[".",".",".",".",".",".",".",".",".",".",".",".",".",".",".",".",".",".",".",".",".",".",".",".",".",".",".",".",".",".",".","."],[0,0,0,0,0,0,0,0,0,0,0,0,0,0,0,0,3,3,3,3,3,3,3,3,3,3,3,3,3,3,3,3]],[[".",".",".",".",".",".",".",".",".",".",".",".",".",".",".",".",".",".",".",".",".",".",".",".",".","."],[".",".",".",".",".",".",".",".",".",".",".",".",".",".",".",".",".",".",".",".",".",".",".",".",".","."],[".",".",".",".",".",".",".",".",".",".",".",".",".",".",".",".",".",".",".",".",".",".",".",".",".","."],[".",".",".",".",".",".",".",".",".",".",".",".",".",".",".",".",".",".",".",".",".",".",".",".",".","."],[".",".",".",".",".",".",".",".",".",".",".",".",".",".",".",".",".",".",".",".",".",".",".",".",".","."],[5,5,5,5,5,5,5,5,5,5,5,5,5,5,5,5,5,5,5,5,5,5,5,5,5,"x"]],[[".",".",".",".",".",".",".",".",".",".",".",".",".",".",".",".",".",".",".",".",".",".",".",".",".",".",".",".",".",".",".",".",".",".",".",".",".",".","."],[".",".",".",".",".",".",".",".",".",".",".",".",".",".",".",".",".",".",".",".",".",".",".",".",".",".",".",".",".",".",".",".",".",".",".",".",".",".","."],[".",".",".",".",".",".",".",".",".",".",".",".",".",".",".",".",".",".",".",".",".",".",".",".",".",".",".",".",".",".",".",".",".",".",".",".",".",".","."],[".",".",".",".",".",".",".",".",".",".",".",".",".",".",".",".",".",".",".",".",".",".",".",".",".",".",".",".",".",".",".",".",".",".",".",".",".",".","."],[".",".",".",".",".",".",".",".",".",".",".",".",".",".",".",".",".",".",".",".",".",".",".",".",".",".",".",".",".",".",".",".",".",".",".",".",".",".","."],[4,"v",".",0,4,0,0,4,"v",".",0,4,0,0,4,"v",".",0,4,0,0,4,"v",".",0,4,0,0,1,0,1,"/",3,"/",4,"\\",3,"\\",1]],[[".",".",".",".",".",".",".",".",".",".",".",".",".",".",".",".",".",".",".",".",".",".",".",".",".",".",".",".",".",".",".",".",".",".",".","."],[".",".",".",".",".",".",".",".",".",".",".",".",".",".",".",".",".",".",".",".",".",".",".",".",".",".",".",".",".",".",".",".",".",".",".","."],[".",".",".",".",".",".",".",".",".",".",".",".",".",".",".",".",".",".",".",".",".",".",".",".",".",".",".",".",".",".",".",".",".",".",".","."],[".",".",".",".",".",".",".",".",".",".",".",".",".",".",".",".",".",".",".",".",".",".",".",".",".",".",".",".",".",".",".",".",".",".",".","."],[".",".",".",".",".",".",".",".",".",".",".",".",".",".",".",".",".",".",".",".",".",".",".",".",".",".",".",".",".",".",".",".",".",".",".","."],[4,"v",".",0,4,0,0,4,"v",".",0,4,0,0,4,"v",".",0,4,0,0,4,"v",".",0,4,0,0,0,0,0,0,0,0,0,"x"]],[[".",".",".",".",".",".",".",".",".",".",".",".",".",".",".",".",".",".",".",".",".",".",".",".",".",".",".",".",".",".",".",".",".",".",".",".",".",".",".",".",".",".","."],[".",".",".",".",".",".",".",".",".",".",".",".",".",".",".",".",".",".",".",".",".",".",".",".",".",".",".",".",".",".",".",".",".",".",".",".",".",".",".",".",".",".","."],[".",".",".",".",".",".",".",".",".",".",".",".",".",".",".",".",".",".",".",".",".",".",".",".",".",".",".",".",".",".",".",".",".",".",".",".",".",".",".",".",".",".","."],[".",".",".",".",".",".",".",".",".",".",".",".",".",".",".",".",".",".",".",".",".",".",".",".",".",".",".",".",".",".",".",".",".",".",".",".",".",".",".",".",".",".","."],[".",".",".",".",".",".",".",".",".",".",".",".",".",".",".",".",".",".",".",".",".",".",".",".",".",".",".",".",".",".",".",".",".",".",".",".",".",".",".",".",".",".","."],[0,0,0,".",0,0,0,".",0,0,0,".",0,0,0,".",0,0,0,".",0,0,0,".",0,0,0,".",0,0,0,".",1,0,1,"/",3,"/",4,"\\",3,"\\",1]],[[".",".",".",".",".",".",".",".",".",".",".",".",".",".",".",".",".",".",".",".",".",".",".",".",".",".",".",".",".",".",".",".",".",".",".",".",".",".",".",".",".",".","."],[".",".",".",".",".",".",".",".",".",".",".",".",".",".",".",".",".",".",".",".",".",".",".",".",".",".",".",".",".",".",".",".",".",".",".",".",".",".",".",".",".",".","."],[".",".",".",".",".",".",".",".",".",".",".",".",".",".",".",".",".",".",".",".",".",".",".",".",".",".",".",".",".",".",".",".",".",".",".",".",".",".",".",".",".",".","."],[".",".",".",".",".",".",".",".",".",".",".",".",".",".",".",".",".",".",".",".",".",".",".",".",".",".",".",".",".",".",".",".",".",".",".",".",".",".",".",".",".",".","."],[".",".",".",".",".",".",".",".",".",".",".",".",".",".",".",".",".",".",".",".",".",".",".",".",".",".",".",".",".",".",".",".",".",".",".",".",".",".",".",".",".",".","."],[0,0,0,".",0,0,0,".",0,0,0,".",0,0,0,".",0,0,0,".",0,0,0,".",0,0,0,".",0,0,0,".",1,0,1,"/",3,"/",4,"\\",3,"\\",1]],[[".",".",".",".",".",".",".",".",".",".",".",".",".",".",".",".",".",".",".",".",".",".",".",".","."],[".",".",".",".",".",".",".",".",".",".",".",".",".",".",".",".",".",".",".",".",".",".",".",".","."],[".",".",".",".",".",".",".",".",".",".",".",".",".",".",".",".",".",".",".",".",".",".",".",".","."],[".",".",".",".",".",".",".",".",".",".",".",".",".",".",".",".",".",".",".",".",".",".",".",".","."],[".",".",".",".",".",".",".",".",".",".",".",".",".",".",".",".",".",".",".",".",".",".",".",".","."],[0,".",".",0,".",".",0,".",".",0,".",".",".",0,0,0,".",0,0,0,".",0,0,0,"."]]],"numberofstrings":6,"notes":["C","G","DsEb","AsBb","F","AsBb"],"capo":0,"stringnotes":["C3","G2","Eb2","Bb1","F1","Bb0"],"comments":["Intro","Intro 2 (repeat once)","","Verse (repeat once)","Prechorus","","Chorus","","Bridge 1","","Bridge 2","","Prechorus 2","","","Ending","","","",""],"timing":[[null,null,"W","W",null,null,null,null,null,null,null,null,"W"],[null,"W","W","W",null,null,null,null,null,null,null,null,null,null,null,null,null,null,null,null,null,null,null,null,null,null,null,null,null,"W",null,"W",null,"W"],[null,"W",null,null,null,null,null,null,null,null,null,null,null,null,null,null,null,null,null,null,null,null,null,null,null,null,null,null,null,null,null,null,null,"W","W"],[null,"W",null,null,null,"W",null,null,null,"W",null,null,"W","W"],[],[],[null,"W",null,"W",null,"W","W",null,"W",null,null,null,"W","W","W",null,null,null,"W",null,"W","W","W"],[null,null,null,null,null,null,null,null,null,null,null,null,null,null,null,null,null,null,null,null,null,null,null,"W"],[null,null,null,null,null,null,null,null,null,null,null,null,null,null,null,null,null,null,null,null,null,null,null,null,null,null,null,null,null,null,null,"W",null,"W",null,"W",null,"W",null,"W"],[null,null,null,null,null,null,null,null,null,null,null,null,null,null,null,null,null,null,null,null,null,null,null,null,null,null,null,null,null,"W","W","W","W","W","W"],[null,"W","W","W",null,null,null,null,null,null,null,null,null,null,null,null,null,null,null,null,null,null,null,null,null,null,null,null,null,null,null,null,null,null,null,null,"W"],[null,null,null,null,null,null,null,null,null,null,null,null,null,null,null,null,null,null,null,null,null,null,null,null,null,null,null,null,null,null,null,null,null,null,null,"W","W"],[null,"W",null,null,"W",null,null,null,null,null,null,null,null,"W","W","W","W","W","W","W","W","W","W","W","W","W","W","W","W","W","W","W","W","W","W","W","W","W","W","W","W","W","W","W","W"],[],[null,"W","W","W","W","W","W","W","W","W","W","W","W","W","W","W","W"],[],[],[],[],[null,"W",null,null,"W",null,null,"W",null,null,"W"]],"timingvisible":false,"tabcounter":25,"stave":19,"totalstaves":20,"instrument":"6guitar","selectedtuning":"Drop A#","version":"13"}

Member for

1 week 6 days
Submitted by rossXII on Fri, 2020-05-22 08:02