Sound will begin in 5 seconds

sw1

01234567891011121314151617181920212223
E
B
G
D
A
E
B
0 1 2 3 4 5 6 7 8 9 10 11 12 13 14 15 16 17 18 19 20 21 22 23
Song Science #1: How Pros Use 6 Chords to Write Hit Songs
(/) Slide Up  (\) Slide Down  (h) Hammer On  (p) Pull Off  (b) Bend (r) Release (v) Vibrato

Stave 1:

E|----------------------------------------------------
B|----------------------------------------------------
G|----------------------------------------------------
D|----------------------------------------------------
A|--------7--8--7--5--8--------7--8--7--5--11--10--5--
E|--1--0-----------------1--0-------------------------

Stave 2:

E|--------------------------------------------------------------------------------------------
B|--------------------------------------------------------------------------------------------
G|--------------------------------------------------------------------------------------------
D|--------------------------------------------------------------------------------------------
A|--------------------------------------------------------------------------------------------
E|--4--3--0--4--3--0--7--4--3--0--4--3--6--7--6--4--3--0--4--3--0--7--4--3--0--6--7--6--3--6--

Stave 3:

E|--------------------------------------------------------------------------------------------
B|--------------------------------------------------------------------------------------------
G|--------------------------------------------------------------------------------------------
D|--------------------------------------------------------------------------------------------
A|-----------------------------------------------2--------------------------------------------
E|--0--0--0--1--0--0--0--0--0--1--4--1--4--1--0-----0--0--0--1--0--0--0--0--0--1--4--1--4--1--

Stave 4:

E|-------------------------------------------------------------
B|-------------------------------------------------------------
G|-------------------------------------------------------------
D|-------------------------------------------------------------
A|-----10--------8-----------------------10--------------------
E|--0------6--0-----4--0--0--3--0--0--0------6--3--4--3--1--4--

Stave 5:

E|-----------------------------------------------------------------------
B|-----------------------------------------------------------------------
G|-----------------------------------------------------------------------
D|-----------------------------------------------------------------------
A|--------------8-----7--------------------7--6--------------------------
E|--0--0--0--0-----9-----8--0--0--0--0--7--------7--0--0--4--5--0--0--3--

Stave 6:

E|--------------------------------------------------------------------------
B|--------------------------------------------------------------------------
G|--------------------------------------------------------------------------
D|--------------------------------------------------------------------------
A|--------------8-----7--------------------7--6-----------------------------
E|--0--0--0--0-----9-----8--0--0--0--0--7--------7--3--2--0--3--2--0--6--3--

Stave 7:

E|-----------------------------------------
B|-----------------------------------------
G|-----------------------------------------
D|-----------------------------------------
A|--------------------------1--0-----------
E|--0--0--0--1--1--0--0--0--------1--2--1--

Stave 8:

E|-----------------------------------------
B|-----------------------------------------
G|-----------------------------------------
D|-----------------------------------------
A|--------------------------1--0-----------
E|--0--0--0--1--1--0--0--0--------1--3--4--

http://www.guitartabcreator.com
Guitar Tab Creator is intended to store guitar tab created through the tool. It currently does not support in-line text editing. Any text you place in here will be lost. If you need to comment on your tab, please use the "Tab Notes" section located below.