Pokemon D/P/Pt - Eterna Galactic Building Music

01234567891011121314151617181920212223
E
B
G
D
A
E
B
0 1 2 3 4 5 6 7 8 9 10 11 12 13 14 15 16 17 18 19 20 21 22 23
(/) Slide Up  (\) Slide Down  (h) Hammer On  (p) Pull Off  (b) Bend (r) Release (v) Vibrato

Stave 1:

G|--------------6------------------------------------------------------6--------------------------------
D|-----------------8-----7--6-----4--5--6--7/8--------8-------------------8-----7--6-----4--5--6-----8--
A|--6-----4--5-------------------------------------9-----6--6-----4h5-----------------------------4-----
E|------------------------------------------------------------------------------------------------------
B|------------------------------------------------------------------------------------------------------

Stave 2:

G|-----------------6-----------------------------------------------------6-----------------------------------
D|--9-----------------8-----7--6-----4--5--6-----8-----8--------------------8-----7--6--6-----4--5--6--------
A|-----6-----4--5-----------------------------------------6--------4--5--------------------------------------
E|-----------------------------------------------------------6-----------------------------------------7--6--
B|-----------------------------------------------------------------------------------------------------------

Stave 3:

G|-----------------6-----------------------6-----------------------------6----------------------
D|--------------------8-----8-----------------8-----7--6-----4--5--6--8-----4h6-----4--5--6--8--
A|--4--6-----4--5--------------6-----4--5-------------------------------------------------------
E|----------------------------------------------------------------------------------------------
B|----------------------------------------------------------------------------------------------

Stave 4:

G|-----------------6--------------------------6-----6-----------------------------------------------------
D|--------------------8-----6--8-----------------8-----7--6-----4--5--6--8-----4--6-----4--5--6-----8-----
A|--9--6-----4--5-----------------6-----4--5-----------------------------------------------------4--------
E|--------------------------------------------------------------------------------------------------------
B|--------------------------------------------------------------------------------------------------------

							http://www.guitartabcreator.com
Chords

Tab Notes
https://www.youtube.com/watch?v=5oMke8Sb47Q&ab_channel=GeorgeTheFunnyOddish Stave 1: 0:00 - 0:08 Stave 2: 0:08 - 0:15 Stave 3: 0:15 - 0:23 Stave 4: 0:23 - 0:31
Instruments
{"strings":[[[".","_",".",".",6,".","_",".",".","_",".",".",".",".",".",".","_",".",".",".",".","_",".",".",".",6,".","_",".",".","_",".",".",".",".","."],[".","_",".",".",".",8,"_",7,6,"_",4,5,6,7,"/",8,"_",".",8,".",".","_",".",".",".",".",8,"_",7,6,"_",4,5,6,".",8],[6,"_",4,5,".",".","_",".",".","_",".",".",".",".",".",".","_",9,".",6,6,"_",4,"h",5,".",".","_",".",".","_",".",".",".",4,"."],[".","_",".",".",".",".","_",".",".","_",".",".",".",".",".",".","_",".",".",".",".","_",".",".",".",".",".","_",".",".","_",".",".",".",".","."],[".","_",".",".",".",".","_",".",".","_",".",".",".",".",".",".","_",".",".",".",".","_",".",".",".",".",".","_",".",".","_",".",".",".",".","."]],[[".",".","_",".",".",6,".","_",".",".","_",".",".",".","_",".","_",".",".",".","_",".",".",6,".","_",".",".",".","_",".",".",".",".","."],[9,".","_",".",".",".",8,"_",7,6,"_",4,5,6,"_",8,"_",8,".",".","_",".",".",".",8,"_",7,6,6,"_",4,5,6,".","."],[".",6,"_",4,5,".",".","_",".",".","_",".",".",".","_",".","_",".",6,".","_",4,5,".",".","_",".",".",".","_",".",".",".",".","."],[".",".","_",".",".",".",".","_",".",".","_",".",".",".","_",".","_",".",".",6,"_",".",".",".",".","_",".",".",".","_",".",".",".",7,6],[".",".","_",".",".",".",".","_",".",".","_",".",".",".","_",".","_",".",".",".","_",".",".",".",".","_",".",".",".","_",".",".",".",".","."]],[[".",".","_",".",".",6,".","_",".",".","_",".",".",6,".","_",".",".","_",".",".",".",".",6,".",".",".","_",".",".",".","."],[".",".","_",".",".",".",8,"_",8,".","_",".",".",".",8,"_",7,6,"_",4,5,6,8,".",4,"h",6,"_",4,5,6,8],[4,6,"_",4,5,".",".","_",".",6,"_",4,5,".",".","_",".",".","_",".",".",".",".",".",".",".",".","_",".",".",".","."],[".",".","_",".",".",".",".","_",".",".","_",".",".",".",".","_",".",".","_",".",".",".",".",".",".",".",".","_",".",".",".","."],[".",".","_",".",".",".",".","_",".",".","_",".",".",".",".","_",".",".","_",".",".",".",".",".",".",".",".","_",".",".",".","."]],[[".",".","_",".",".",6,".","_",".",".",".","_",".",".",6,".",6,".",".","_",".",".",".",".","_",".",".","_",".",".",".",".",".","_"],[".",".","_",".",".",".",8,"_",6,8,".","_",".",".",".",8,".",7,6,"_",4,5,6,8,"_",4,6,"_",4,5,6,".",8,"_"],[9,6,"_",4,5,".",".","_",".",".",6,"_",4,5,".",".",".",".",".","_",".",".",".",".","_",".",".","_",".",".",".",4,".","_"],[".",".","_",".",".",".",".","_",".",".",".","_",".",".",".",".",".",".",".","_",".",".",".",".","_",".",".","_",".",".",".",".",".","_"],[".",".","_",".",".",".",".","_",".",".",".","_",".",".",".",".",".",".",".","_",".",".",".",".","_",".",".","_",".",".",".",".",".","_"]]],"numberofstrings":5,"notes":["G","D","A","E","B"],"capo":0,"stringnotes":["G2","D2","A1","E1","B0"],"comments":["Stave 1:","Stave 2:","Stave 3:","Stave 4:"],"timing":[[null,null,null,null,null,null,null,null,null,null,null,null,null,null,null,null,null,null,null,null,null,null,null,null,null,null,null,null,null,null,null,null,null,null,null,null],[null,null,null,null,null,null,null,null,null,null,null,null,null,null,null,null,null,null,null,null,null,null,null,null,null,null,null,null,null,null,null,null,null,null,null],[null,null,null,null,null,null,null,null,null,null,null,null,null,null,null,null,null,null,null,null,null,null,null,null,null,null,null,null,null,null,null,null],[null,null,null,null,null,null,null,null,null,null,null,null,null,null,null,null,null,null,null,null,null,null,null,null,null,null,null,null,null,null,null,null,null,"W"]],"timingvisible":false,"tabcounter":34,"stave":3,"totalstaves":4,"instrument":"5bass","selectedtuning":"5bass","version":"13"}

Member for

7 months 2 weeks
Submitted by Ross Branch on Wed, 2021-06-02 11:06