Sound will begin in 5 seconds

Rythmless Section 1

01234567891011121314151617181920212223
E
B
G
D
A
E
B
0 1 2 3 4 5 6 7 8 9 10 11 12 13 14 15 16 17 18 19 20 21 22 23
Song Science #1: How Pros Use 6 Chords to Write Hit Songs
(/) Slide Up  (\) Slide Down  (h) Hammer On  (p) Pull Off  (b) Bend (r) Release (v) Vibrato

Stave 1:

G|-----------------------------------------------------------------
D|-----------------------------------------------------------------
A|-5-5-5-5---------1-1-1-1---------5-5-5-5---------1-1-1-1-1-1-3-3-
D|---------5-5-5-5---------3-3-3-3---------5-5-5-5-----------------
B|-----------------------------------------------------------------

Stave 2:

G|-------------------------------------------------------
D|-----------------------------------------------3p0-----
A|-5-5-5-5---------1-1-1-1---------------0h3h5-0-----3p0-
D|---------5-5-5-5---------3-3-3-3-0h3h5-----------------
B|-------------------------------------------------------

Stave 3:

G|--------------------------------------------------------------------------------
D|--------------------------------------------------------------------------------
A|-----------------------------12h15-12/10-----------------------------10h12-10/9-
D|-12-12-12-12--12-12-12-12-12-------------10-10-10-10--10-10-10-10-10------------
B|--------------------------------------------------------------------------------

Stave 4:

G|-----------------------------------------10/7-
D|-----------------------------12-10----10------
A|--------------------8h10-8/7-------12---------
D|-8-8-8-8--8-8-8-8-8---------------------------
B|----------------------------------------------

Stave 5:

G|-----------------------------------------------------------------
D|-----------------------------------------------------------------
A|-5-5-5-5---------1-1-1-1---------5-5-5-5---------1-1-1-1-1-1-3-3-
D|---------5-5-5-5---------3-3-3-3---------5-5-5-5-----------------
B|-----------------------------------------------------------------

Stave 6:

G|-------------------------------------------------------
D|-----------------------------------------------3p0-----
A|-5-5-5-5---------1-1-1-1---------------0h3h5-0-----3p0-
D|---------5-5-5-5---------3-3-3-3-0h3h5-----------------
B|-------------------------------------------------------

Stave 7:

G|--------------------------------------------------------
D|--------------------------------------------------------
A|-5-5-5-5---------1-1-1-1--------------------------------
D|---------5-5-5-5---------3-3-3-3-0h3h5-0h3h5-0h3h5-0--0-
B|--------------------------------------------------------

Stave 8:

G|--------------------------------------------------------------------------------
D|--------------------------------------------------------------------------------
A|-----------------------------12h15-12/10-----------------------------10h12-10/9-
D|-12-12-12-12--12-12-12-12-12-------------10-10-10-10--10-10-10-10-10------------
B|--------------------------------------------------------------------------------

Stave 9:

G|-----------------------------------------10/7-
D|-----------------------------12-10----10------
A|--------------------8h10-8/7-------12---------
D|-8-8-8-8--8-8-8-8-8---------------------------
B|----------------------------------------------

Stave 10:

G|-------------------------------------------------
D|-------------------------------------------------
A|-------------------------------------------------
D|-------------------------------------------------
B|-0-0-3-3-----0-0-3-3-----0-0-3-3-----0-0-3-3-----

Stave 11:

G|------------------------------------------------------------------------
D|------------------------------------------------------------------------
A|-----2\5--------------2\5-------------2\5-------------2\5---------------
D|----------5-4-7-7---------5-4/2-0---------5-4-7-7---------5-4/2-0h2h4-0-
B|-0-0--------------0-0-------------0-0-------------0-0-------------------

http://www.guitartabcreator.com
Guitar Tab Creator is intended to store guitar tab created through the tool. It currently does not support in-line text editing. Any text you place in here will be lost. If you need to comment on your tab, please use the "Tab Notes" section located below.