Sound will begin in 5 seconds

The Dark Sign

Chords
01234567891011121314151617181920212223
E
B
G
D
A
E
B
0 1 2 3 4 5 6 7 8 9 10 11 12 13 14 15 16 17 18 19 20 21 22 23
Song Science #1: How Pros Use 6 Chords to Write Hit Songs
(/) Slide Up  (\) Slide Down  (h) Hammer On  (p) Pull Off  (b) Bend (r) Release (v) Vibrato

Stave 1:

B|------------------------------------------
G|--------11--------10--------11--------10--
D|-----9---------9---------9---------9------
A|--8---------8---------8---------8---------
E|------------------------------------------
A|------------------------------------------

Stave 2:

B|-----------------------------------|-----------|--
G|-----------------------------------|-----------|--
D|-----------------------------------|--7--6--3--|--
A|-----------------------------------|--7--6--3--|--
E|--5--4--1--5--4--1--5--4--1--5--4--|--5--4--1--|--
A|--5--4--1--5--4--1--5--4--1--5--4--|--5--4--1--|--

Stave 3:

B|-----------------------|------------------------------|--------------------
G|-----------------------|--------------------9--11--8--|--------------------
D|-----------------------|--------------------7--9---6--|--------------------
A|-----------------------|--------------------8--10--7--|--------------------
E|-----------------------|------------------------------|--------------------
A|--0--0--0--0--0--0-----|--0--0--0--0--0--0------------|--0--0--0--0--0--0--

Stave 4:

B|--------------------------------------------------
G|--------------------------------------------------
D|--------------------------------------------------
A|------------------------13------------------------
E|--------------------12------12--------------------
A|--0--0--0--0--0--0--------------0--0--0--0--0--0--

Stave 5:

B|-----------------------------------------------------------------------------------
G|-----------------------------------------------------------------------------6--7--
D|--5--7--------------------5--7--------------------5--5--5--7--7--7--8--8--8--------
A|--5--7--------------------5--7-----------------------------------------------------
E|--3--5--------------------3--5-----------------------------------------------------
A|--------0--0--0--0--0--0--------0--0--0--0--0--0-----------------------------------

Stave 6:

B|---------------------------------------------------------------------------------------------------------
G|---------------------------------------------------------------------------------------------------------
D|---------------------------------------------------------------------------------------------------------
A|--------------------7--9--10-----------------6--7--------------------------------------------------------
E|------------------------------7--6--0--5--8-----------------7--7--7--6--6--6-----------3--3--3--4--4--4--
A|--0--0--0--0--0--0---------------------------------8--8--8--------------------0--0--0--------------------

Stave 7:

B|----------------------------------------------------------------------------------
G|----------------------------------------------------------------------------------
D|--5--7--------------------5--7----------------------------------------------------
A|--5--7--------------------5--7--------------------7--10---------------------------
E|--3--5--------------------3--5----------------------------------------------7--8--
A|--------0--0--0--0--0--0--------0--0--0--0--0--0---------0--0--0--0--7--10--------

Stave 8:

B|----------------------------------------------------------
G|----------------------------------------------------------
D|----------------------------------------------------------
A|----------------------------------------------------------
E|--12-----12-----11-----11-----14-----14-----15-----15-----
A|------0------0------0------0------0------0------0------0--

Stave 9:

B|--------------------------------------------------------
G|--------------------------------------------------------
D|--------------------------------------------------------
A|--------------------------------------------------------
E|--------2-----1--------2-----1--2-----2-----3-----3-----
A|--1--4-----0-----1--4-----0--------0-----0-----0-----0--

Stave 10:

B|--------------------------------------------------------------
G|--------------------------------------------------------------
D|--------------------------------------------------------------
A|--------------------------------------------------------------
E|--4--3--1--4--3--1--4--3--1--4--3--1-----5--------------3-----
A|--4--3--1--4--3--1--4--3--1--4--3--1--6-----6--5--3--5-----5--

Stave 11:

B|----------------------------------------------------------------------------------
G|----------------------------------------------------------------------------------
D|--------------------------------7--10--7------------------------------------------
A|--------------------------6--9------------------------------------------7--10--7--
E|--4--3--1--4--3--1--5--8------------------4--3--1--4--3--1--------6--9------------
A|--4--3--1--4--3--1------------------------4--3--1--4--3--1--5--8------------------

Stave 12:

B|-----------------------------------------------------------
G|-----------------------------------------------------------
D|-----------------------------------------------------------
A|--------------------5--4--------------------0--2--6--2--5--
E|--------------------------6--5--0--2--3--2-----------------
A|--0--0--0--0--0--0-----------------------------------------

Stave 13:

B|------------------------------------------|------------------------------------------
G|------------------------------------------|------------------------------------------
D|------------------------------------------|------------------------------------------
A|--------10--------10--------10--------10--|---------9---------9---------9---------9--
E|-----7---------7---------7---------7------|-----10--------10--------10--------10-----
A|--7---------7---------7---------7---------|--9---------9---------9---------9---------

Stave 14:

B|-----------|------------------------------------------------------------------------------------------
G|-----------|------------------------------------------------------------------------------------------
D|-----------|------------------------------------------------------------------------------------------
A|-----------|--10-----------------------10-----------------9------------------------9------------------
E|--7--9--7--|---------------7------------------------7--7--------------10-----------------------10-----
A|--7--9--7--|------7--7--7-----7--7--7------7--7--7-----------9--9--9------9--9--9-----9--9--9---------

Stave 15:

B|-----------------------------------------------------6--|--8--
G|-----------------------------------------------------5--|--7--
D|-----------------------------------------------------4--|--6--
A|--2--------------------------2-----------2--2--3--1-----|-----
E|--2--1--1--1--1--1--1--1--1--2--1--1--1--2--2--3--1-----|-----
A|-----1--1--1--1--1--1--1--1-----1--1--1-----------------|-----

Stave 16:

B|---------------------------------------------------------------------
G|---------------------------------------------------------------------
D|---------------------------------------------------------------8-----
A|-----8---------10-------------------------------------7-----7-----7--
E|--7-----10--7------9--7------------7-----7--10--7--6-----8-----------
A|-------------------------10--9--7-----8------------------------------

Stave 17:

B|-----------|-----------|-----------
G|-----------|-----------|-----------
D|-----------|-----------|-----------
A|-----------|-----------|-----------
E|-----------|-----------|-----------
A|--0--0--0--|--0--0--0--|--0--0--0--

Stave 18:

B|--------------------------|--------------------------|--------------------------|----------------------
G|--------------------------|--------------------------|--------------------------|----------------------
D|--------------------------|--------------------------|--19--13--16--19--13--16--|--18--12--15--18--12--
A|--18--12--15--18--12--15--|--19--13--16--19--13--16--|--------------------------|----------------------
E|--------------------------|--------------------------|--------------------------|----------------------
A|--------------------------|--------------------------|--------------------------|----------------------

Stave 19:

B|--------------------------------------------------|-----------------------------------------------------
G|-----------------------------11--10---------8--7--|-----------------------------------------------------
D|-------------------------------------9--10--------|-----------------------------------------------------
A|--------------------------------------------------|-----------------------------------------------4--5--
E|--------4--------3--------2-----------------------|--------4--------3--------2--8--7--------5--6--------
A|--6--3-----6--3-----6--3--------------------------|--6--3-----6--3-----6--3-----------6--7--------------

Stave 20:

B|-----------------------------13--|--15--
G|-----------------------------12--|--14--
D|-----------------------------11--|--13--
A|--------5--------4--------3------|------
E|--------4--------3--------2------|------
A|--6--3-----6--3-----6--3---------|------

http://www.guitartabcreator.com
Guitar Tab Creator is intended to store guitar tab created through the tool. It currently does not support in-line text editing. Any text you place in here will be lost. If you need to comment on your tab, please use the "Tab Notes" section located below.