junk

Chords

01234567891011121314151617181920212223
E
B
G
D
A
E
B
0 1 2 3 4 5 6 7 8 9 10 11 12 13 14 15 16 17 18 19 20 21 22 23
(/) Slide Up  (\) Slide Down  (h) Hammer On  (p) Pull Off  (b) Bend (r) Release (v) Vibrato

Stave 1:

E|--8--10--11--13--15--13--11--10--8--8--10---------
B|-------------------------------------------11--8--
G|--------------------------------------------------
D|--------------------------------------------------
A|--------------------------------------------------
E|--------------------------------------------------

Stave 2:

E|----------------------------------------------------------------
B|----------------------------------------------------------------
G|-----------5--------7----------8--------5----------12--------7--
D|--------6--------8---------10--------6---------13---------8-----
A|-----6--------8--------10---------6--------13----------8--------
E|----------------------------------------------------------------

Stave 3:

E|----------------11v--10v-------
B|--11v--8v--11v------------11v--
G|-------------------------------
D|-------------------------------
A|-------------------------------
E|-------------------------------

Stave 4:

E|--15--11--8--6----------
B|------------------------
G|---------------------0--
D|----------------0h1-----
A|------------------------
E|------------------------

							http://www.guitartabcreator.com
Instruments
{"strings":[[[8,10,11,13,15,13,11,10,8,8,10,".","."],[".",".",".",".",".",".",".",".",".",".",".",11,8],[".",".",".",".",".",".",".",".",".",".",".",".","."],[".",".",".",".",".",".",".",".",".",".",".",".","."],[".",".",".",".",".",".",".",".",".",".",".",".","."],[".",".",".",".",".",".",".",".",".",".",".",".","."]],[["_",".",".",".",".",".",".",".",".",".",".",".",".",".",".",".",".",".","."],["_",".",".",".",".",".",".",".",".",".",".",".",".",".",".",".",".",".","."],["_",".",".",5,".",".",7,".",".",8,".",".",5,".",".",12,".",".",7],["_",".",6,".",".",8,".",".",10,".",".",6,".",".",13,".",".",8,"."],["_",6,".",".",8,".",".",10,".",".",6,".",".",13,".",".",8,".","."],["_",".",".",".",".",".",".",".",".",".",".",".",".",".",".",".",".",".","."]],[[".",".",".",".",".",".",11,"v",10,"v",".","."],[11,"v",8,"v",11,"v",".",".",".",".",11,"v"],[".",".",".",".",".",".",".",".",".",".",".","."],[".",".",".",".",".",".",".",".",".",".",".","."],[".",".",".",".",".",".",".",".",".",".",".","."],[".",".",".",".",".",".",".",".",".",".",".","."]],[[15,11,8,6,".",".",".","."],[".",".",".",".",".",".",".","."],[".",".",".",".",".",".",".",0],[".",".",".",".",0,"h",1,"."],[".",".",".",".",".",".",".","."],[".",".",".",".",".",".",".","."]]],"numberofstrings":6,"notes":["E","B","G","D","A","E","B"],"capo":0,"stringnotes":["E4","B3","G3","D3","A2","E2"],"comments":["Stave 1:","Stave 2:","Stave 3:","Stave 4:","Stave 5:"],"timing":[[null,null,null,null,null,null,null,null,null,null,"W","W","W"],[null,"W","W","W","W","W","W","W","W","W","W","W","W","W","W","W","W","W","W"],["W",null,"W",null,"W",null,"W",null,"W",null,"W"],["W","W","W","W","W",null,"W","W"],["W","W","W","W",null,"W",null,"W",null,"W","W"]],"timingvisible":false,"tabcounter":0,"totalstaves":4,"instrument":"6guitar","selectedtuning":"6_standard","version":"13"}

Member for

1 month 2 weeks
Submitted by rorro on Thu, 2020-10-15 22:18