Futurist

Chords

01234567891011121314151617181920212223
E
B
G
D
A
E
B
0 1 2 3 4 5 6 7 8 9 10 11 12 13 14 15 16 17 18 19 20 21 22 23
(/) Slide Up  (\) Slide Down  (h) Hammer On  (p) Pull Off  (b) Bend (r) Release (v) Vibrato

Stave 1:

E|---------------------------------------------------------------------------------
B|---------------------------------------------------------------------------------
G|---------------------------------------------------------------------------------
D|--5h7--5--------------------3--2--2--------5h7--5--------------------3--2--------
A|----------8--7--5--------3-------------------------8--7--5--------3--------3-----
E|-------------------8--1-------------------------------------8--1-----------------

Stave 2:

E|---------------------------------------------------------------------------------------------------------------------------------------
B|---------------------------------------------------------------------------------------------------------------------------------------
G|-------------------------------------------------------------12--9-----10--9-----------------------------------------------------------
D|--------9-----10-----12---------------------------9--10--12-------------------12--10--------------9-----10-----12----------------------
A|--8--8-----8------8------8--8--8--8\3-----12--12--------------------------------------------8--8-----8------8------8--8--8--8\3--------
E|---------------------------------------------------------------------------------------------------------------------------------------

Stave 3:

E|-------------------------------------------
B|---------------------------------12--13\5--
G|-----------------12--14--12--14------------
D|----------9--10----------------------------
A|--12--12-----------------------------------
E|-------------------------------------------

Stave 4:

E|----------------------------------------------
B|----------------------------------------------
G|---------------------------------12--13--14v--
D|--9--10--12-----------9--10--12---------------
A|-------------10\7-----------------------------
E|----------------------------------------------

Stave 5:

E|---------------------------------------------------------------------------------------
B|---------------------------------------------------------------------------------------
G|--10--10--9--9-----------------------9-------------------------------------------------
D|-------------------10--10--9------9-----9--10----------------------9--10/12\10--9------
A|------------------------------12---------------10--12--12--10--12------------------12--
E|---------------------------------------------------------------------------------------

							http://www.guitartabcreator.com
Instruments
{"strings":[[[".",".",".",".",".",".",".",".",".",".",".",".",".","_","_",".",".",".",".",".",".",".",".",".",".",".",".",".","_"],[".",".",".",".",".",".",".",".",".",".",".",".",".","_","_",".",".",".",".",".",".",".",".",".",".",".",".",".","_"],[".",".",".",".",".",".",".",".",".",".",".",".",".","_","_",".",".",".",".",".",".",".",".",".",".",".",".",".","_"],[5,"h",7,5,".",".",".",".",".",".",3,2,2,"_","_",5,"h",7,5,".",".",".",".",".",".",3,2,".","_"],[".",".",".",".",8,7,5,".",".",3,".",".",".","_","_",".",".",".",".",8,7,5,".",".",3,".",".",3,"_"],[".",".",".",".",".",".",".",8,1,".",".",".",".","_","_",".",".",".",".",".",".",".",8,1,".",".",".",".","_"]],[[".",".",".",".",".",".",".",".",".",".",".",".",".","_",".",".",".",".",".",".",".","_",".",".",".",".","_","_",".",".",".",".",".",".",".",".",".",".",".",".",".","_","_"],[".",".",".",".",".",".",".",".",".",".",".",".",".","_",".",".",".",".",".",".",".","_",".",".",".",".","_","_",".",".",".",".",".",".",".",".",".",".",".",".",".","_","_"],[".",".",".",".",".",".",".",".",".",".",".",".",".","_",".",".",".",".",".",12,9,"_",10,9,".",".","_","_",".",".",".",".",".",".",".",".",".",".",".",".",".","_","_"],[".",".",9,".",10,".",12,".",".",".",".",".",".","_",".",".",9,10,12,".",".","_",".",".",12,10,"_","_",".",".",9,".",10,".",12,".",".",".",".",".",".","_","_"],[8,8,".",8,".",8,".",8,8,8,8,"\\",3,"_",12,12,".",".",".",".",".","_",".",".",".",".","_","_",8,8,".",8,".",8,".",8,8,8,8,"\\",3,"_","_"],[".",".",".",".",".",".",".",".",".",".",".",".",".","_",".",".",".",".",".",".",".","_",".",".",".",".","_","_",".",".",".",".",".",".",".",".",".",".",".",".",".","_","_"]],[[".",".",".",".",".",".",".",".",".",".",".","."],[".",".",".",".",".",".",".",".",12,13,"\\",5],[".",".",".",".",12,14,12,14,".",".",".","."],[".",".",9,10,".",".",".",".",".",".",".","."],[12,12,".",".",".",".",".",".",".",".",".","."],[".",".",".",".",".",".",".",".",".",".",".","."]],[[".",".",".",".",".",".","_",".",".",".",".",".",".","."],[".",".",".",".",".",".","_",".",".",".",".",".",".","."],[".",".",".",".",".",".","_",".",".",".",12,13,14,"v"],[9,10,12,".",".",".","_",9,10,12,".",".",".","."],[".",".",".",10,"\\",7,"_",".",".",".",".",".",".","."],[".",".",".",".",".",".","_",".",".",".",".",".",".","."]],[[".",".",".",".","_",".",".",".",".",".",".",".",".",".",".",".",".",".",".",".",".",".",".",".",".","."],[".",".",".",".","_",".",".",".",".",".",".",".",".",".",".",".",".",".",".",".",".",".",".",".",".","."],[10,10,9,9,"_",".",".",".",".",".",9,".",".",".",".",".",".",".",".",".",".",".",".",".",".","."],[".",".",".",".","_",10,10,9,".",9,".",9,10,".",".",".",".",".",9,10,"/",12,"\\",10,9,"."],[".",".",".",".","_",".",".",".",12,".",".",".",".",10,12,12,10,12,".",".",".",".",".",".",".",12],[".",".",".",".","_",".",".",".",".",".",".",".",".",".",".",".",".",".",".",".",".",".",".",".",".","."]]],"numberofstrings":6,"notes":["E","B","G","D","A","E","B"],"capo":0,"stringnotes":["E4","B3","G3","D3","A2","E2"],"comments":["Stave 1:","Stave 2:","Stave 3:","Stave 4:","Stave 5:"],"timing":[[null,null,null,null,null,null,null,null,null,null,"W","W","W",null,null,"W",null,"W","W","W","W","W","W","W","W","W","W","W"],["W","W","W","W","W","W","W","W","W","W","W",null,"W",null,"W","W","W","W","W","W","W","W","W","W","W","W","W",null,"W","W","W","W","W","W","W","W","W","W","W",null,"W",null,null,"W","W","W","W",null,"W","W","W"],["W","W","W","W","W","W","W","W","W","W",null,"W"],["W","W","W","W",null,"W",null,"W","W","W","W","W","W"],["W","W","W","W",null,"W","W","W","W","W","W","W","W","W","W","W","W","W","W","W",null,"W",null,"W","W","W"]],"timingvisible":false,"tabcounter":26,"stave":4,"totalstaves":5,"instrument":"6guitar","selectedtuning":"6_standard","version":"13"}

Member for

1 week 4 days
Submitted by roric32 on Tue, 2020-06-30 09:50