Sound will begin in 5 seconds

Root Zero - Follower (5 string bass tab)

01234567891011121314151617181920212223
E
B
G
D
A
E
B
0 1 2 3 4 5 6 7 8 9 10 11 12 13 14 15 16 17 18 19 20 21 22 23
Song Science #1: How Pros Use 6 Chords to Write Hit Songs
(/) Slide Up  (\) Slide Down  (h) Hammer On  (p) Pull Off  (b) Bend (r) Release (v) Vibrato

Stave 1:

Ab|--------------------------------------------------------------------------------------
Eb|-----------------------5--5--5--5--5--5--5--------------------------------------------
Bb|--0--0--0--0--0--0--------------------------6--6--6--6--6--6-----5--5--5--5--3--3--0--
F |--------------------------------------------------------------------------------------
Bb|--------------------------------------------------------------------------------------

Stave 2:

Ab|--------------7--------------7--0--------------7--0--2--2--3--3--2--0--2--
Eb|--------7--8-----------7--8--------------7--8-----------------------------
Bb|--0--0-----------0--0--------------0--0-----------------------------------
F |--------------------------------------------------------------------------
Bb|--------------------------------------------------------------------------

Stave 3:

Ab|-----------------------------------------------------------------7--------------------------
Eb|-----------7--9-----------7--9--------------7--9-----------7--9--------------7--9-----------
Bb|-----7--8-----------7--8--------8-----7--8-----------7--8--------------7--8-----------------
F |--0--------------0-----------------0--------------0-----------------0--------------0--3b2b1b
Bb|--------------------------------------------------------------------------------------------

Stave 4:

Ab|-----------------------------------------------------------------------------------------------------------
Eb|--------------------------------------------------------------------------------------------3--------------
Bb|-----------------------------------------------------------------------------------------------------------
F |--0--0--0--0--0--0--0--0--0--0--0--0--12b12b12b0--0--0--0--0--0--0--0--0--0--0--0--3--2--0-----4--0--3--2--
Bb|-----------------------------------------------------------------------------------------------------------

http://www.guitartabcreator.com
Guitar Tab Creator is intended to store guitar tab created through the tool. It currently does not support in-line text editing. Any text you place in here will be lost. If you need to comment on your tab, please use the "Tab Notes" section located below.