Pracitce arpeggio

Chords

01234567891011121314151617181920212223
E
B
G
D
A
E
B
0 1 2 3 4 5 6 7 8 9 10 11 12 13 14 15 16 17 18 19 20 21 22 23
(/) Slide Up  (\) Slide Down  (h) Hammer On  (p) Pull Off  (b) Bend (r) Release (v) Vibrato

Stave 1:

E|--12------------------------------12------------------------------11------------------------------11----------------------
B|------14----------------------14------14----------------------14------13----------------------13------13------------------
G|----------13--------------13--------------13--------------13--------------11--------------11--------------11--------------
D|--------------14--11--14----------------------14--11--14----------------------14--13--14----------------------14--13--14--
A|--------------------------------------------------------------------------------------------------------------------------
E|--------------------------------------------------------------------------------------------------------------------------

Stave 2:

E|----------14p11--------------------11h14p11--------------------11h12------------------------------11----------------------
B|------13---------13------------13------------13------------13---------14----------------------14------13------------------
G|--11-----------------14p11h14--------------------14p11h14-----------------13--------------13--------------11--------------
D|------------------------------------------------------------------------------14--11--14----------------------13--10--13--
A|--------------------------------------------------------------------------------------------------------------------------
E|--------------------------------------------------------------------------------------------------------------------------

Stave 3:

E|----------------
B|------13/14-----
G|--11------------
D|----------------
A|----------------
E|----------------

							http://www.guitartabcreator.com
Tab Notes
Wait a half beat at the end then repeat. it gives it a slightly different feeling when starting it over
genre
Instruments
{"strings":[[[12,".",".",".",".",".",".",".",12,".",".",".",".",".",".",".",11,".",".",".",".",".",".",".",11,".",".",".",".","."],[".",14,".",".",".",".",".",14,".",14,".",".",".",".",".",14,".",13,".",".",".",".",".",13,".",13,".",".",".","."],[".",".",13,".",".",".",13,".",".",".",13,".",".",".",13,".",".",".",11,".",".",".",11,".",".",".",11,".",".","."],[".",".",".",14,11,14,".",".",".",".",".",14,11,14,".",".",".",".",".",14,13,14,".",".",".",".",".",14,13,14],[".",".",".",".",".",".",".",".",".",".",".",".",".",".",".",".",".",".",".",".",".",".",".",".",".",".",".",".",".","."],[".",".",".",".",".",".",".",".",".",".",".",".",".",".",".",".",".",".",".",".",".",".",".",".",".",".",".",".",".","."]],[[".",".",14,"p",11,".",".",".",".",".",".",".",11,"h",14,"p",11,".",".",".",".",".",".",".",11,"h",12,".",".",".",".",".",".",".",11,".",".",".",".","."],[".",13,".",".",".",13,".",".",".",".",".",13,".",".",".",".",".",13,".",".",".",".",".",13,".",".",".",14,".",".",".",".",".",14,".",13,".",".",".","."],[11,".",".",".",".",".",14,"p",11,"h",14,".",".",".",".",".",".",".",14,"p",11,"h",14,".",".",".",".",".",13,".",".",".",13,".",".",".",11,".",".","."],[".",".",".",".",".",".",".",".",".",".",".",".",".",".",".",".",".",".",".",".",".",".",".",".",".",".",".",".",".",14,11,14,".",".",".",".",".",13,10,13],[".",".",".",".",".",".",".",".",".",".",".",".",".",".",".",".",".",".",".",".",".",".",".",".",".",".",".",".",".",".",".",".",".",".",".",".",".",".",".","."],[".",".",".",".",".",".",".",".",".",".",".",".",".",".",".",".",".",".",".",".",".",".",".",".",".",".",".",".",".",".",".",".",".",".",".",".",".",".",".","."]],[[".",".",".",".","_"],[".",13,"/",14,"_"],[11,".",".",".","_"],[".",".",".",".","_"],[".",".",".",".","_"],[".",".",".",".","_"]]],"numberofstrings":6,"notes":["E","B","G","D","A","E","B"],"capo":0,"stringnotes":["E4","B3","G3","D3","A2","E2"],"comments":["Stave 1:","Stave 2:","Stave 3:"],"timing":[["W","W","W","W","W","W","W","W","W","W","W","W","W","W","W","W","W","W","W","W","W","W","W","W","W","W","W","W","W","W"],["W","W","W",null,"W","W","W",null,"W",null,"W","W","W",null,"W","W","W","W","W",null,"W",null,"W","W","W",null,"W","W","W","W","W","W","W","W","W","W","W","W","W","W"],["W","W",null,"S"]],"timingvisible":false,"tabcounter":5,"stave":2,"totalstaves":3,"instrument":"6guitar","selectedtuning":"6_standard","version":"13"}

Member for

2 months 1 week
Picture
Submitted by RonRon on Sat, 2020-09-26 09:20