Sound will begin in 5 seconds

Our Day Will Come (Amy Winehouse)

01234567891011121314151617181920212223
E
B
G
D
A
E
B
0 1 2 3 4 5 6 7 8 9 10 11 12 13 14 15 16 17 18 19 20 21 22 23
(/) Slide Up  (\) Slide Down  (h) Hammer On  (p) Pull Off  (b) Bend (r) Release (v) Vibrato

Intro

G|--------------|--------------|--------------|--------------|--
D|--1--1-----1--|--1--1-----1--|--1--1-----1--|--1--1-----1--|--
A|--------------|--------------|--------------|--------------|--
E|--------------|--------------|--------------|--------------|--



G|--------------|--------------|--------------|--------------|--
D|--1--1-----1--|--1--1-----1--|--1--1-----1--|--1--1-----1--|--
A|--------------|--------------|--------------|--------------|--
E|--------------|--------------|--------------|--------------|--

Verse 1

G|-----------------|-----------------|-----------------|-----------------------|--
D|--1--1-----1--3--|--4--4--------4--|--3--3--------3--|-----3--------3-----3--|--
A|--------1--------|--------4--------|-----------3-----|--3-----1--1-----1-----|--
E|-----------------|-----------------|-----------------|-----------------------|--

Our day will come and we'll have every thing

G|-----------------|-----------------|-----------------|-----------------------|--
D|--1--1-----1--3--|--4--4--------4--|--3--3--------3--|-----3--------3--------|--
A|--------1--------|--------4--------|-----------3-----|--3-----1--1-----1-----|--
E|-----------------|-----------------|-----------------|-----------------------|--

We'll share the joy falling in love can bring

G|--
D|--
A|--
E|--

http://www.guitartabcreator.com
Guitar Tab Creator is intended to store guitar tab created through the tool. It currently does not support in-line text editing. Any text you place in here will be lost. If you need to comment on your tab, please use the "Tab Notes" section located below.