jazz saxophone

Chords

01234567891011121314151617181920212223
E
B
G
D
A
E
B
0 1 2 3 4 5 6 7 8 9 10 11 12 13 14 15 16 17 18 19 20 21 22 23
(/) Slide Up  (\) Slide Down  (h) Hammer On  (p) Pull Off  (b) Bend (r) Release (v) Vibrato

Stave 1:

E|--------------------------------------------------
B|--------------------------------------------------
G|----------------8--10--11-----13/14--15-----15\0--
D|--8--10-----11------------------------------------
A|--------------------------------------------------
E|--------------------------------------------------

Stave 2:

E|---------------------------------------------------
B|---------------------------------------------------
G|-------------10------------------------------------
D|--11-------------13--11--13-----11---------11------
A|------13----------------------------13---------13--
E|---------------------------------------------------

Stave 3:

E|-------------------------
B|-------------------------
G|-------------------------
D|--13--11-----------------
A|----------13--11-----13--
E|-------------------------

Stave 4:

E|-------------13------------------------------------
B|--14-------------16--14--16-----14---------14------
G|------15----------------------------15---------15--
D|---------------------------------------------------
A|---------------------------------------------------
E|---------------------------------------------------

Stave 5:

E|-------------------------
B|--16--14-----------------
G|----------15--13-----15--
D|-------------------------
A|-------------------------
E|-------------------------

							http://www.guitartabcreator.com
Instruments
{"title":"jazz saxophone","strings":[[[".",".","_",".",".",".",".","_",".",".",".",".","_",".",".","."],[".",".","_",".",".",".",".","_",".",".",".",".","_",".",".","."],[".",".","_",".",8,10,11,"_",13,"/",14,15,"_",15,"\\",0],[8,10,"_",11,".",".",".","_",".",".",".",".","_",".",".","."],[".",".","_",".",".",".",".","_",".",".",".",".","_",".",".","."],[".",".","_",".",".",".",".","_",".",".",".",".","_",".",".","."]],[[".",".","_",".",".",".",".","_",".",".","_",".","."],[".",".","_",".",".",".",".","_",".",".","_",".","."],[".",".","_",10,".",".",".","_",".",".","_",".","."],[11,".","_",".",13,11,13,"_",11,".","_",11,"."],[".",13,"_",".",".",".",".","_",".",13,"_",".",13],[".",".","_",".",".",".",".","_",".",".","_",".","."]],[[".",".",".",".","_","."],[".",".",".",".","_","."],[".",".",".",".","_","."],[13,11,".",".","_","."],[".",".",13,11,"_",13],[".",".",".",".","_","."]],[[".",".","_",13,".",".",".","_",".",".","_",".","."],[14,".","_",".",16,14,16,"_",14,".","_",14,"."],[".",15,"_",".",".",".",".","_",".",15,"_",".",15],[".",".","_",".",".",".",".","_",".",".","_",".","."],[".",".","_",".",".",".",".","_",".",".","_",".","."],[".",".","_",".",".",".",".","_",".",".","_",".","."]],[[".",".",".",".","_","."],[16,14,".",".","_","."],[".",".",15,13,"_",15],[".",".",".",".","_","."],[".",".",".",".","_","."],[".",".",".",".","_","."]]],"numberofstrings":6,"notes":["E","B","G","D","A","E","B"],"capo":0,"stringnotes":["E4","B3","G3","D3","A2","E2"],"comments":["Stave 1:","Stave 2:","Stave 3:","Stave 4:","Stave 5:"],"timing":[["W","W","W","W","W","W","W",null,"W",null,"W","W",null,"W",null,"W"],["W","W",null,"W","W","W","W","W","W","W",null,"W","W"],["W","W","W","W",null,"W"],["W","W",null,"W","W","W","W",null,"W","W",null,"W","W"],["W","W","W","W",null,"W"]],"timingvisible":false,"tabcounter":6,"stave":4,"totalstaves":5,"instrument":"6guitar","selectedtuning":"6_standard","version":"13"}

Member for

2 years 8 months
Submitted by Roddy on Wed, 2018-08-01 18:23