Sound will begin in 5 seconds

Happily Ever After

Chords
01234567891011121314151617181920212223
E
B
G
D
A
E
B
0 1 2 3 4 5 6 7 8 9 10 11 12 13 14 15 16 17 18 19 20 21 22 23
(/) Slide Up  (\) Slide Down  (h) Hammer On  (p) Pull Off  (b) Bend (r) Release (v) Vibrato

Stave 1:

E|-------------------------------------------------------------------------------
B|-------------------------------------------------------------------------------
G|-------------------------------------------------------------------------------
D|--2--2-----5--7--2--2-----5--7--2--2--5--7-----14--14--13--13--12--12--11--11--
A|--2--2-----5--7--2--2-----5--7--2--2--5--7-----14--14--13--13--12--12--11--11--
E|--2--2-----5--7--2--2-----5--7--2--2--5--7-----14--14--13--13--12--12--11--11--

Stave 2:

E|-----------------------------------------------------------------------------------
B|-----------------------------------------------------------------------------------
G|--13-----13--13--13--13--13--13--11--11-----9--8-----8--8--8--8--8--9-----9/11--9--
D|-----------------------------------------------------------------------------------
A|-----------------------------------------------------------------------------------
E|-----------------------------------------------------------------------------------

Stave 3:

E|---------------------------------
B|---------------------------------
G|--13--13-----11--11-----9--9/11--
D|---------------------------------
A|---------------------------------
E|---------------------------------

Stave 4:

E|------------------------------------------------------------------------
B|------------------------------------------------------------------------
G|--9--9--8------8--9--11--9-----9--9--8------8--9-----8--9--11--9--------
D|-----------11---------------------------11------------------------9--9--
A|------------------------------------------------------------------------
E|------------------------------------------------------------------------

Stave 5:

E|---------------------------------------------------------------------------
B|-------------------------9-----9--9----------------9------9--10--10--9--9--
G|--9--9--8------8--9--11--------------11--9-----11-----11-------------------
D|-----------11--------------------------------------------------------------
A|---------------------------------------------------------------------------
E|---------------------------------------------------------------------------

Stave 6:

E|--------------------------------------------------------
B|--------9--9--------------------------------------------
G|-----9--------11--9--8--------8--9-----9--9--11--11--9--
D|--9------------------------9----------------------------
A|--------------------------------------------------------
E|--------------------------------------------------------

Stave 7:

E|-------------------------------------------------------------------------
B|--------9--9--10--9--9\7-----------9--9--10--10--12-----10--9--10--9-----
G|-----8--------------------------8-------------------------------------9--
D|--9--------------------------9-------------------------------------------
A|-------------------------------------------------------------------------
E|-------------------------------------------------------------------------

Stave 8:

E|--------------------------------------------------------------------------------------
B|-----10--9-----------------------------------9--------------------9-------------------
G|--9---------9--11--11--9--9-----9--8--9--11-----9--11-----11--11-----9--11--11--9--9--
D|--------------------------------------------------------------------------------------
A|--------------------------------------------------------------------------------------
E|--------------------------------------------------------------------------------------

Stave 9:

E|-----------------------------------------------------------------------------
B|------10--12--10--10-------------------------------------------10--10--8--8--
G|--12------------------12-----12--12--11--11--9-----9--7-----7----------------
D|---------------------------------------------------------9-------------------
A|-----------------------------------------------------------------------------
E|-----------------------------------------------------------------------------

Stave 10:

E|--------------------------------------8--7--7-------------
B|--8--8--7--8-----8--7--8/10--------------------10--10/12--
G|-----------------------------7-----7----------------------
D|----------------------------------------------------------
A|----------------------------------------------------------
E|----------------------------------------------------------

							http://www.guitartabcreator.com
Note:
Guitar Tab Creator is intended to store guitar tab created through the tool. It currently does not support in-line text editing. Any text you place in here will be lost. If you need to comment on your tab, please use the "Tab Notes" section located below.