Fusionfall Tab 1

Chords

01234567891011121314151617181920212223
E
B
G
D
A
E
B
0 1 2 3 4 5 6 7 8 9 10 11 12 13 14 15 16 17 18 19 20 21 22 23
(/) Slide Up  (\) Slide Down  (h) Hammer On  (p) Pull Off  (b) Bend (r) Release (v) Vibrato

Stave 1:

E|--------------------
B|--------------------
G|--------------------
D|--------------------
A|--5--4--------------
E|--3--2-----3--2--1--

Stave 2:

E|-----------------------------------------------------
B|-----------------------------------------------------
G|-----------------------------------------------------
D|--------6--------------------------------------------
A|--8--7-----7--7h8--7--6-----7h9--8-----4-----4/8--7--
E|-----------------------------------------------------

Stave 3:

E|-------------------------
B|-------------------------
G|-------------------------
D|-------5-----------5--4--
A|--3/6--3--6--------3--2--
E|--1-4-----4--------------

Stave 4:

E|-----------------
B|-----------------
G|--------------8--
D|--8--8h10--9-----
A|-----------------
E|-----------------

							http://www.guitartabcreator.com
Instruments
{"title":"Fusionfall Tab 1","strings":[[[".","_","_",".",".","."],[".","_","_",".",".","."],[".","_","_",".",".","."],[".","_","_",".",".","."],[5,4,"_",".",".","."],[3,2,"_",3,2,1]],[[".",".",".",".",".",".",".",".",".","_",".",".",".",".","_",".","_",".",".",".","."],[".",".",".",".",".",".",".",".",".","_",".",".",".",".","_",".","_",".",".",".","."],[".",".",".",".",".",".",".",".",".","_",".",".",".",".","_",".","_",".",".",".","."],[".",".",6,".",".",".",".",".",".","_",".",".",".",".","_",".","_",".",".",".","."],[8,7,".",7,7,"h",8,7,6,"_",7,"h",9,8,"_",4,"_",4,"/",8,7],[".",".",".",".",".",".",".",".",".","_",".",".",".",".","_",".","_",".",".",".","."]],[[".",".",".",".",".","_","_",".","."],[".",".",".",".",".","_","_",".","."],[".",".",".",".",".","_","_",".","."],[".",".",".",5,".","_","_",5,4],[3,"/",6,3,6,"_","_",3,2],[1,".",4,".",4,"_","_",".","."]],[[".",".",".",".",".","."],[".",".",".",".",".","."],[".",".",".",".",".",8],[8,8,"h",10,9,"."],[".",".",".",".",".","."],[".",".",".",".",".","."]]],"numberofstrings":6,"notes":["E","B","G","D","A","E","B"],"capo":0,"stringnotes":["E4","B3","G3","D3","A2","E2"],"comments":["Stave 1:","Stave 2:","Stave 3:","Stave 4:"],"timing":[["W","W","W","W","W","W"],["W","W","W","W","W",null,"W","W","W",null,"W",null,"W","W",null,"W",null,"W",null,"W","W"],["W","W","W","W","W",null,null,"W","W"],["W","W",null,"W","W","W"]],"timingvisible":false,"tabcounter":6,"stave":3,"totalstaves":4,"instrument":"6guitar","selectedtuning":"6_standard","version":"13"}

Member for

2 years 8 months
Submitted by Roddy on Wed, 2018-08-01 18:23