Sound will begin in 5 seconds

Madguitar

Chords
01234567891011121314151617181920212223
E
B
G
D
A
E
B
0 1 2 3 4 5 6 7 8 9 10 11 12 13 14 15 16 17 18 19 20 21 22 23
Song Science #1: How Pros Use 6 Chords to Write Hit Songs
(/) Slide Up  (\) Slide Down  (h) Hammer On  (p) Pull Off  (b) Bend (r) Release (v) Vibrato

Stave 1:

E|--------------------------------------------------------------------------------------------
B|--------------------------------------------------------------------------------------------
G|--------------------------------------------------------------------------------------------
D|--------------------------------------------------------------------------------------------
A|------11h12--14--14------11h12\14--17--15--14------11h12--14--14------11h12\14--17--15--14--
E|--12-----------------12------------------------12-----------------12------------------------

Stave 2:

E|--------------------------------------------------------------------------------------------
B|--------------------------------------------------------------------------------------------
G|---------------------------------------------------13h14--16--16------13h14\16--19--17--16--
D|-----------------------------------------------14-----------------14------------------------
A|--------------------------------------------------------------------------------------------
E|--------------------------------------------------------------------------------------------

Stave 3:

E|-----------------------------------------------------------------------------------------------------------------------------------------------------
B|-----------------------------------------------------------------------------------------------------------------------------------------------------
G|-----------------------------------------------------------------------------------------------------------------------------------------------------
D|--------------------------------------------------------------------------------------------2--6--7--9--9--2--6--7--9--12--10--9---------------------
A|--------------------------------------------------------------------------------------------2--6--7--9--9--2--6--7--9--12--10--9-----------------3h5p
E|--------------------------------------------------------------------------------------------0--4--5--7--7--0--4--5--7--10--8---7--0--0--0--0--0------

http://www.guitartabcreator.com
Guitar Tab Creator is intended to store guitar tab created through the tool. It currently does not support in-line text editing. Any text you place in here will be lost. If you need to comment on your tab, please use the "Tab Notes" section located below.