You Shook Me All Night Long

01234567891011121314151617181920212223
E
B
G
D
A
E
B
0 1 2 3 4 5 6 7 8 9 10 11 12 13 14 15 16 17 18 19 20 21 22 23
(/) Slide Up  (\) Slide Down  (h) Hammer On  (p) Pull Off  (b) Bend (r) Release (v) Vibrato

Stave 1:

E|---------------------------------------------|---------------------------|--
B|--8-----------------10--8--8-----8--7--------|--3-------3----------------|--
G|--7-----------------7---7--7-----------7-----|--2-------2-------2--------|--
D|--0--0--0--0--0--0--0---0--0--0-----------0--|--0--3b4--0--3h4-----3--0--|--
A|---------------------------------------------|---------------------------|--
E|---------------------------------------------|---------------------------|--

Stave 2:

E|---------------------------------------------|--------------------------|--
B|--8-----------------10--8--8-----8--7--------|--3-----------------------|--
G|--7-----------------7---7--7-----------7-----|--2-----------------------|--
D|--0--0--0--0--0--0--0---0--0--0-----------0--|--0-----------------------|--
A|---------------------------------------------|--------------------------|--
E|---------------------------------------------|--------------------------|--

Stave 3:

E|-----------------------|-----------------|--
B|-----------------------|-----------------|--
G|-----------------------|-----------------|--
D|-----5--5-----5-----7--|--------7-----7--|--
A|--5--3--3--5--3--5--5--|--5--5--5--5--5--|--
E|--3--------3-----3-----|--3--3-----3-----|--

Stave 4:

E|-----3-----------------------------2--------------------------|--
B|-----3--------------3--------3-----3--------------3--------3--|--
G|-----0-----------0--------0--------2-----------0--------0-----|--
D|-----0-----------------------------0--------------------------|--
A|-----2--0--2--3--------2--------0-----0--2--3--------2--------|--
E|--3--3--------------------------------------------------------|--

Stave 5:

E|--2--------------|--3--------------|--2--------------|--3--------------|--
B|--3--------------|--3--------------|--3--------------|--3--------------|--
G|--2--------------|--2--------------|--2--------------|--2--------------|--
D|--0--------------|--0--------------|--0--------------|--0--------------|--
A|-----------------|-----------------|-----------------|-----------------|--
E|-----------------|-----------------|-----------------|-----------------|--

							http://www.guitartabcreator.com
Chords

Instruments
{"strings":[[[".",".",".",".",".",".",".",".",".",".",".",".",".",".","|",".",".",".",".",".",".",".",".",".",".",".","|"],[8,".",".",".",".",".",10,8,8,".",8,7,".",".","|",3,".",".",".",3,".",".",".",".",".",".","|"],[7,".",".",".",".",".",7,7,7,".",".",".",7,".","|",2,".",".",".",2,".",".",".",2,".",".","|"],[0,0,0,0,0,0,0,0,0,0,".",".",".",0,"|",0,3,"b",4,0,3,"h",4,".",3,0,"|"],[".",".",".",".",".",".",".",".",".",".",".",".",".",".","|",".",".",".",".",".",".",".",".",".",".",".","|"],[".",".",".",".",".",".",".",".",".",".",".",".",".",".","|",".",".",".",".",".",".",".",".",".",".",".","|"]],[[".",".",".",".",".",".",".",".",".",".",".",".",".",".","|",".","_","_","_","_","_","_","_","|"],[8,".",".",".",".",".",10,8,8,".",8,7,".",".","|",3,"_","_","_","_","_","_","_","|"],[7,".",".",".",".",".",7,7,7,".",".",".",7,".","|",2,"_","_","_","_","_","_","_","|"],[0,0,0,0,0,0,0,0,0,0,".",".",".",0,"|",0,"_","_","_","_","_","_","_","|"],[".",".",".",".",".",".",".",".",".",".",".",".",".",".","|",".","_","_","_","_","_","_","_","|"],[".",".",".",".",".",".",".",".",".",".",".",".",".",".","|",".","_","_","_","_","_","_","_","|"]],[[".",".",".",".",".",".",".","|",".",".",".",".",".","|"],[".",".",".",".",".",".",".","|",".",".",".",".",".","|"],[".",".",".",".",".",".",".","|",".",".",".",".",".","|"],[".",5,5,".",5,".",7,"|",".",".",7,".",7,"|"],[5,3,3,5,3,5,5,"|",5,5,5,5,5,"|"],[3,".",".",3,".",3,".","|",3,3,".",3,".","|"]],[[".",3,".",".",".",".",".",".",".",".",".",2,".",".",".",".",".",".",".",".","|"],[".",3,".",".",".",".",3,".",".",3,".",3,".",".",".",".",3,".",".",3,"|"],[".",0,".",".",".",0,".",".",0,".",".",2,".",".",".",0,".",".",0,".","|"],[".",0,".",".",".",".",".",".",".",".",".",0,".",".",".",".",".",".",".",".","|"],[".",2,0,2,3,".",".",2,".",".",0,".",0,2,3,".",".",2,".",".","|"],[3,3,".",".",".",".",".",".",".",".",".",".",".",".",".",".",".",".",".",".","|"]],[[2,"_","_","_","_","|",3,"_","_","_","_","|",2,"_","_","_","_","|",3,"_","_","_","_","|"],[3,"_","_","_","_","|",3,"_","_","_","_","|",3,"_","_","_","_","|",3,"_","_","_","_","|"],[2,"_","_","_","_","|",2,"_","_","_","_","|",2,"_","_","_","_","|",2,"_","_","_","_","|"],[0,"_","_","_","_","|",0,"_","_","_","_","|",0,"_","_","_","_","|",0,"_","_","_","_","|"],[".","_","_","_","_","|",".","_","_","_","_","|",".","_","_","_","_","|",".","_","_","_","_","|"],[".","_","_","_","_","|",".","_","_","_","_","|",".","_","_","_","_","|",".","_","_","_","_","|"]]],"numberofstrings":6,"notes":["E","B","G","D","A","E","B"],"capo":0,"stringnotes":["E4","B3","G3","D3","A2","E2"],"comments":["Stave 1:","Stave 2:","Stave 3:","Stave 4:","Stave 5:"],"timing":[["W","W","W","W","W","W","W","W","W","W","W","W","W","W",null,"W","W",null,"W","W","W",null,"W","W","W","W"],["W","W","W","W","W","W","W","W","W","W","W","W","W","W",null,"W"],["W","W","W","W","W","W","W",null,"W","W","W","W","W"],["W","W","W","W","W","W","W","W","W","W","W","W","W","W","W","W","W","W","W","W"],["W",null,null,null,null,null,"W",null,null,null,null,null,"W",null,null,null,null,null,"W"]],"timingvisible":false,"tabcounter":24,"stave":4,"totalstaves":5,"instrument":"6guitar","selectedtuning":"6_standard","version":"13"}

Member for

5 years 3 months
Submitted by rockstarguitar on Mon, 2021-02-22 17:29