Sweet Child O' Mine (Guitar Solos)

01234567891011121314151617181920212223
E
B
G
D
A
E
B
0 1 2 3 4 5 6 7 8 9 10 11 12 13 14 15 16 17 18 19 20 21 22 23
(/) Slide Up  (\) Slide Down  (h) Hammer On  (p) Pull Off  (b) Bend (r) Release (v) Vibrato

Stave 1:

E|------------------------|------------------------|------------------------------------------|--
B|------------------------|------------------------|---------------------------15--15b17------|--
G|--14p12--11--14p12--11--|--14p12------14p12------|--14p12--14b16--12--14b16-------------11--|--
D|------------------------|---------14---------14--|------------------------------------------|--
A|------------------------|------------------------|------------------------------------------|--
E|------------------------|------------------------|------------------------------------------|--

Stave 2:

E|------------------------|------------------------|---------------------------------------------|--
B|------------------------|------------------------|----------------------------------15---------|--
G|--14p12--11--14p12--11--|--14p12------14p12------|--14p12--14p12--12/11------12b14------12/11--|--
D|------------------------|---------14---------14--|-----------------------12--------------------|--
A|------------------------|------------------------|---------------------------------------------|--
E|------------------------|------------------------|---------------------------------------------|--

Stave 3:

E|-----------------------------------------------------------------------------------|--
B|-------------------------------15--15/13--13/17--17--17/15--15/13--13--12----------|--
G|--14p12--11--14p12--11--14b16----------------------------------------------12------|--
D|-------------------------------------------------------------------------------12--|--
A|-----------------------------------------------------------------------------------|--
E|-----------------------------------------------------------------------------------|--

Stave 4:

E|--------------------------------------17--|--
B|--------------------15--15b17--17b19------|--
G|--14b16--12--14b16------------------------|--
D|------------------------------------------|--
A|------------------------------------------|--
E|------------------------------------------|--

							http://www.guitartabcreator.com
Chords

Instruments
{"strings":[[[".",".",".",".",".",".",".",".","|",".",".",".",".",".",".",".",".","|",".",".",".",".",".",".",".",".",".",".",".",".",".",".",".","|"],[".",".",".",".",".",".",".",".","|",".",".",".",".",".",".",".",".","|",".",".",".",".",".",".",".",".",".",".",15,15,"b",17,".","|"],[14,"p",12,11,14,"p",12,11,"|",14,"p",12,".",14,"p",12,".","|",14,"p",12,14,"b",16,12,14,"b",16,".",".",".",".",11,"|"],[".",".",".",".",".",".",".",".","|",".",".",".",14,".",".",".",14,"|",".",".",".",".",".",".",".",".",".",".",".",".",".",".",".","|"],[".",".",".",".",".",".",".",".","|",".",".",".",".",".",".",".",".","|",".",".",".",".",".",".",".",".",".",".",".",".",".",".",".","|"],[".",".",".",".",".",".",".",".","|",".",".",".",".",".",".",".",".","|",".",".",".",".",".",".",".",".",".",".",".",".",".",".",".","|"]],[[".",".",".",".",".",".",".",".","|",".",".",".",".",".",".",".",".","|",".",".",".",".",".",".",".",".",".",".",".",".",".",".",".",".",".","|"],[".",".",".",".",".",".",".",".","|",".",".",".",".",".",".",".",".","|",".",".",".",".",".",".",".",".",".",".",".",".",".",15,".",".",".","|"],[14,"p",12,11,14,"p",12,11,"|",14,"p",12,".",14,"p",12,".","|",14,"p",12,14,"p",12,12,"/",11,".",12,"b",14,".",12,"/",11,"|"],[".",".",".",".",".",".",".",".","|",".",".",".",14,".",".",".",14,"|",".",".",".",".",".",".",".",".",".",12,".",".",".",".",".",".",".","|"],[".",".",".",".",".",".",".",".","|",".",".",".",".",".",".",".",".","|",".",".",".",".",".",".",".",".",".",".",".",".",".",".",".",".",".","|"],[".",".",".",".",".",".",".",".","|",".",".",".",".",".",".",".",".","|",".",".",".",".",".",".",".",".",".",".",".",".",".",".",".",".",".","|"]],[[".",".",".",".",".",".",".",".",".",".",".",".",".",".",".",".",".",".",".",".",".",".",".",".",".",".",".",".",".","|"],[".",".",".",".",".",".",".",".",".",".",".",15,15,"/",13,13,"/",17,17,17,"/",15,15,"/",13,13,12,".",".","|"],[14,"p",12,11,14,"p",12,11,14,"b",16,".",".",".",".",".",".",".",".",".",".",".",".",".",".",".",".",12,".","|"],[".",".",".",".",".",".",".",".",".",".",".",".",".",".",".",".",".",".",".",".",".",".",".",".",".",".",".",".",12,"|"],[".",".",".",".",".",".",".",".",".",".",".",".",".",".",".",".",".",".",".",".",".",".",".",".",".",".",".",".",".","|"],[".",".",".",".",".",".",".",".",".",".",".",".",".",".",".",".",".",".",".",".",".",".",".",".",".",".",".",".",".","|"]],[[".",".",".",".",".",".",".",".",".",".",".",".",".",".",17,"|"],[".",".",".",".",".",".",".",15,15,"b",17,17,"b",19,".","|"],[14,"b",16,12,14,"b",16,".",".",".",".",".",".",".",".","|"],[".",".",".",".",".",".",".",".",".",".",".",".",".",".",".","|"],[".",".",".",".",".",".",".",".",".",".",".",".",".",".",".","|"],[".",".",".",".",".",".",".",".",".",".",".",".",".",".",".","|"]]],"numberofstrings":6,"notes":["E","B","G","D","A","E","B"],"capo":0,"stringnotes":["E4","B3","G3","D3","A2","E2"],"comments":["Stave 1:","Stave 2:","Stave 3:","Stave 4:"],"timing":[["W",null,"W","W","W",null,"W","W",null,"W",null,"W","W","W",null,"W","W",null,"W",null,"W","W",null,"W","W","W",null,"W","W","W",null,"W","W"],["W",null,"W","W","W",null,"W","W",null,"W","W","W","W","W",null,"W","W",null,"W",null,"W","W",null,"W","W",null,"W","W","W",null,"W","W","W",null,"W"],["W",null,"W","W","W",null,"W","W","W",null,"W","W","W",null,"W","W",null,"W","W","W",null,"W","W",null,"W","W","W","W","W","W",null,"W","W","W"],["W",null,"W","W","W",null,"W","W","W",null,"W","W",null,"W","W"]],"timingvisible":false,"tabcounter":16,"stave":3,"totalstaves":4,"instrument":"6guitar","selectedtuning":"6_standard","version":"13"}

Member for

5 years 5 months
Submitted by rockstarguitar on Thu, 2021-03-04 18:30