Sleigh Ride

01234567891011121314151617181920212223
E
B
G
D
A
E
B
0 1 2 3 4 5 6 7 8 9 10 11 12 13 14 15 16 17 18 19 20 21 22 23
(/) Slide Up  (\) Slide Down  (h) Hammer On  (p) Pull Off  (b) Bend (r) Release (v) Vibrato

Stave 1:

E|--1--1--1--1--3--1--------------------------|--1--3--1--------------------------------|--
B|--------------------3-----1--3--1-----------|-----------3--1-----1--1--3--1-----------|--
G|-----------------------3-----------2--0-----|-----------------3--------------3--0--3--|--
D|-----------------------------------------3--|-----------------------------------------|--
A|--------------------------------------------|-----------------------------------------|--
E|--------------------------------------------|-----------------------------------------|--

Stave 2:

E|-----------------------------0-----|-----------------|-----------------------0-----|--
B|--------3--------3--------3-----2--|--3--2--------0--|--2--0-----------0--2--------|--
G|-----0--------0--------0-----------|--------2--------|--------0-----0-----------2--|--
D|--4--------4--------4--------------|-----------4-----|-----------2-----------------|--
A|-----------------------------------|-----------------|-----------------------------|--
E|-----------------------------------|-----------------|-----------------------------|--

Stave 3:

E|-----------------------------------|-----------------|--
B|--------1--------1--------1--3--0--|--1--0-----------|--
G|-----------------------------------|--------0-----2--|--
D|--2--3-----2--3-----2--3-----------|-----------2-----|--
A|-----------------------------------|-----------------|--
E|-----------------------------------|-----------------|--

							http://www.guitartabcreator.com
Chords

Instruments
{"strings":[[[1,1,1,1,3,1,".",".",".",".",".",".",".",".","|",1,3,1,".",".",".",".",".",".",".",".",".",".","|"],[".",".",".",".",".",".",3,".",1,3,1,".",".",".","|",".",".",".",3,1,".",1,1,3,1,".",".",".","|"],[".",".",".",".",".",".",".",3,".",".",".",2,0,".","|",".",".",".",".",".",3,".",".",".",".",3,0,3,"|"],[".",".",".",".",".",".",".",".",".",".",".",".",".",3,"|",".",".",".",".",".",".",".",".",".",".",".",".",".","|"],[".",".",".",".",".",".",".",".",".",".",".",".",".",".","|",".",".",".",".",".",".",".",".",".",".",".",".",".","|"],[".",".",".",".",".",".",".",".",".",".",".",".",".",".","|",".",".",".",".",".",".",".",".",".",".",".",".",".","|"]],[[".",".",".",".",".",".",".",".",".",0,".","|",".",".",".",".",".","|",".",".",".",".",".",".",".",0,".","|"],[".",".",3,".",".",3,".",".",3,".",2,"|",3,2,".",".",0,"|",2,0,".",".",".",0,2,".",".","|"],[".",0,".",".",0,".",".",0,".",".",".","|",".",".",2,".",".","|",".",".",0,".",0,".",".",".",2,"|"],[4,".",".",4,".",".",4,".",".",".",".","|",".",".",".",4,".","|",".",".",".",2,".",".",".",".",".","|"],[".",".",".",".",".",".",".",".",".",".",".","|",".",".",".",".",".","|",".",".",".",".",".",".",".",".",".","|"],[".",".",".",".",".",".",".",".",".",".",".","|",".",".",".",".",".","|",".",".",".",".",".",".",".",".",".","|"]],[[".",".",".",".",".",".",".",".",".",".",".","|",".",".",".",".",".","|"],[".",".",1,".",".",1,".",".",1,3,0,"|",1,0,".",".",".","|"],[".",".",".",".",".",".",".",".",".",".",".","|",".",".",0,".",2,"|"],[2,3,".",2,3,".",2,3,".",".",".","|",".",".",".",2,".","|"],[".",".",".",".",".",".",".",".",".",".",".","|",".",".",".",".",".","|"],[".",".",".",".",".",".",".",".",".",".",".","|",".",".",".",".",".","|"]]],"numberofstrings":6,"notes":["E","B","G","D","A","E","B"],"capo":0,"stringnotes":["E4","B3","G3","D3","A2","E2"],"comments":["Stave 1:","Stave 2:","Stave 3:"],"timing":[["W","W","W","W","W","W","W","W","W","W","W","W","W","W",null,"W","W","W","W","W","W","W","W","W","W","W","W","W"],["W","W","W","W","W","W","W","W","W","W","W",null,"W","W","W","W","W",null,"W","W","W","W","W","W","W","W","W"],["W","W","W","W","W","W","W","W","W","W","W",null,"W","W","W","W","W"]],"timingvisible":false,"tabcounter":18,"stave":2,"totalstaves":3,"instrument":"6guitar","selectedtuning":"6_standard","version":"13"}

Member for

5 years 2 months
Submitted by rockstarguitar on Tue, 2020-12-01 16:29