Mandolorian

01234567891011121314151617181920212223
E
B
G
D
A
E
B
0 1 2 3 4 5 6 7 8 9 10 11 12 13 14 15 16 17 18 19 20 21 22 23
(/) Slide Up  (\) Slide Down  (h) Hammer On  (p) Pull Off  (b) Bend (r) Release (v) Vibrato

Stave 1:

E|--------------------------------------------|--
B|--------------------------------------------|--
G|--------------------------------------------|--
D|--------------------------------------------|--
A|-----3-----3--3--3-----3--3--3-----3--3--3--|--
E|--3-----------------------------------------|--

Stave 2:

E|-----------------------------|--------------------------|-----------------------------|-----------------------|--
B|-----------------------------|--------------------------|-----------------------------|-----------------------|--
G|-----------------------5-----|--------------------------|-----------------------5--7--|-----5--7--8--7--5-----|--
D|--5--5--5-----5--5--5-----8--|-----5--6-----8--6--5-----|--5--5--5-----5--5--5--------|--8-----------------8--|--
A|-----------------------------|--8--------------------8--|-----------------------------|-----------------------|--
E|-----------------------------|--------------------------|-----------------------------|-----------------------|--

Stave 3:

E|--------------------|-----------------7--8--|--
B|--8--6--------------|--------6-----8--------|--
G|--------7--5--------|-----5-----7-----------|--
D|--------------8--5--|--6--------------------|--
A|--------------------|-----------------------|--
E|--------------------|-----------------------|--

Stave 4:

E|--------------------------------------|--------------------------------------|--
B|--1--3-----1--4-----1--4--1--3--1--4--|--------------------------------------|--
G|--0--0-----0--0-----0--0--0--0--0--0--|--5--7-----5--8-----5--8--5--7--5--8--|--
D|--------------------------------------|--6--6-----6--6-----6--6--6--6--6--6--|--
A|--------------------------------------|--------------------------------------|--
E|--------------------------------------|--------------------------------------|--

							http://www.guitartabcreator.com
Chords

Instruments
{"strings":[[[".",".","_",".",".",".","_",".",".",".","_",".",".",".","|"],[".",".","_",".",".",".","_",".",".",".","_",".",".",".","|"],[".",".","_",".",".",".","_",".",".",".","_",".",".",".","|"],[".",".","_",".",".",".","_",".",".",".","_",".",".",".","|"],[".",3,"_",3,3,3,"_",3,3,3,"_",3,3,3,"|"],[3,".","_",".",".",".","_",".",".",".","_",".",".",".","|"]],[[".",".",".","_",".",".",".",".",".","|",".",".",".","_",".",".",".",".","|",".",".",".","_",".",".",".",".",".","|",".",".",".",".",".",".",".","|"],[".",".",".","_",".",".",".",".",".","|",".",".",".","_",".",".",".",".","|",".",".",".","_",".",".",".",".",".","|",".",".",".",".",".",".",".","|"],[".",".",".","_",".",".",".",5,".","|",".",".",".","_",".",".",".",".","|",".",".",".","_",".",".",".",5,7,"|",".",5,7,8,7,5,".","|"],[5,5,5,"_",5,5,5,".",8,"|",".",5,6,"_",8,6,5,".","|",5,5,5,"_",5,5,5,".",".","|",8,".",".",".",".",".",8,"|"],[".",".",".","_",".",".",".",".",".","|",8,".",".","_",".",".",".",8,"|",".",".",".","_",".",".",".",".",".","|",".",".",".",".",".",".",".","|"],[".",".",".","_",".",".",".",".",".","|",".",".",".","_",".",".",".",".","|",".",".",".","_",".",".",".",".",".","|",".",".",".",".",".",".",".","|"]],[[".",".",".",".",".",".","|",".",".",".",".",".",7,8,"|"],[8,6,".",".",".",".","|",".",".",6,".",8,".",".","|"],[".",".",7,5,".",".","|",".",5,".",7,".",".",".","|"],[".",".",".",".",8,5,"|",6,".",".",".",".",".",".","|"],[".",".",".",".",".",".","|",".",".",".",".",".",".",".","|"],[".",".",".",".",".",".","|",".",".",".",".",".",".",".","|"]],[[".",".","_",".",".","_",".",".",".",".",".",".","|",".",".","_",".",".","_",".",".",".",".",".",".","|"],[1,3,"_",1,4,"_",1,4,1,3,1,4,"|",".",".","_",".",".","_",".",".",".",".",".",".","|"],[0,0,"_",0,0,"_",0,0,0,0,0,0,"|",5,7,"_",5,8,"_",5,8,5,7,5,8,"|"],[".",".","_",".",".","_",".",".",".",".",".",".","|",6,6,"_",6,6,"_",6,6,6,6,6,6,"|"],[".",".","_",".",".","_",".",".",".",".",".",".","|",".",".","_",".",".","_",".",".",".",".",".",".","|"],[".",".","_",".",".","_",".",".",".",".",".",".","|",".",".","_",".",".","_",".",".",".",".",".",".","|"]]],"numberofstrings":6,"notes":["E","B","G","D","A","E","B"],"capo":0,"stringnotes":["E4","B3","G3","D3","A2","E2"],"comments":["Stave 1:","Stave 2:","Stave 3:","Stave 4:"],"timing":[["W","W",null,"W","W","W",null,"W","W","W",null,"W","W","W"],["W","W","W","W","W","W","W","W","W",null,"W","W","W",null,"W","W","W","W",null,"W","W","W",null,"W","W","W","W","W",null,"W","W","W","W","W","W","W"],["W","W","W","W","W","W",null,"W","W","W","W","W","W","W"],["W","W",null,"W","W",null,"W","W","W","W","W","W",null,"W","W",null,"W","W",null,"W","W","W","W","W","W"]],"timingvisible":false,"tabcounter":26,"stave":3,"totalstaves":4,"instrument":"6guitar","selectedtuning":"6_standard","version":"13"}

Member for

5 years 3 months
Submitted by rockstarguitar on Fri, 2021-02-19 17:37