Deck The Halls (Fingerstyle)

Chords

01234567891011121314151617181920212223
E
B
G
D
A
E
B
0 1 2 3 4 5 6 7 8 9 10 11 12 13 14 15 16 17 18 19 20 21 22 23
(/) Slide Up  (\) Slide Down  (h) Hammer On  (p) Pull Off  (b) Bend (r) Release (v) Vibrato

Capo Fret 5

Stave 1:

E|--3--------1--0-----------------------0-----------|-----0--1-----0-----------------------------|--
B|--------------------3-----1-----3-----------1-----|--3--------3-----3--1-----0-----1-----------|--
G|-----0-----------0-----0-----0-----0-----0-----0--|-----0--2-----0--------0-----0-----0-----0--|--
D|--------2-----------------------------------------|--3--------------3--2-----0-----2-----2-----|--
A|--3-----------3-----2-----0-----2-----3-----0-----|--------------------------------------------|--
E|--------------------------------------------------|--------------------------------------------|--

Stave 2:

E|-----------0--1-----------|--0--------1--3-----------|--0--2--3--5--7--8--7--5--3--|--
B|--3-----------------3-----|--------------------3-----|-----------------------------|--
G|-----0-----------0-----0--|-----0-----------0-----0--|-----------------------------|--
D|--------0-----------------|--------2-----------------|--------------------0--------|--
A|--------------------------|--3-----------3-----2-----|--3--------0-----------------|--
E|--3-----------------------|--------------------------|-----------------------2--3--|--

Stave 3:

E|--3--------1--0-----------------------0-----------|--5--5--5--5--3--1--0-----------------------|--
B|--------------------3-----1-----3-----------1-----|--------------------------3-----1-----------|--
G|-----0-----------0-----0-----0-----0-----0-----0--|-----------------------0-----0-----0-----0--|--
D|--------2-----------------------------------------|--------------------------------------2-----|--
A|--3-----------3-----2-----0-----2-----3-----0-----|--------------3-----3-----2-----3-----------|--
E|--------------------------------------------------|--1-----------------------------------------|--

							http://www.guitartabcreator.com
Instruments
{"strings":[[[3,".",".",1,0,".",".",".",".",".",".",".",0,".",".",".","|",".",0,1,".",0,".",".",".",".",".",".",".",".",".","|"],[".",".",".",".",".",".",3,".",1,".",3,".",".",".",1,".","|",3,".",".",3,".",3,1,".",0,".",1,".",".",".","|"],[".",0,".",".",".",0,".",0,".",0,".",0,".",0,".",0,"|",".",0,2,".",0,".",".",0,".",0,".",0,".",0,"|"],[".",".",2,".",".",".",".",".",".",".",".",".",".",".",".",".","|",3,".",".",".",".",3,2,".",0,".",2,".",2,".","|"],[3,".",".",".",3,".",2,".",0,".",2,".",3,".",0,".","|",".",".",".",".",".",".",".",".",".",".",".",".",".",".","|"],[".",".",".",".",".",".",".",".",".",".",".",".",".",".",".",".","|",".",".",".",".",".",".",".",".",".",".",".",".",".",".","|"]],[[".",".",".",0,1,".",".",".","|",0,".",".",1,3,".",".",".","|",0,2,3,5,7,8,7,5,3,"|"],[3,".",".",".",".",".",3,".","|",".",".",".",".",".",".",3,".","|",".",".",".",".",".",".",".",".",".","|"],[".",0,".",".",".",0,".",0,"|",".",0,".",".",".",0,".",0,"|",".",".",".",".",".",".",".",".",".","|"],[".",".",0,".",".",".",".",".","|",".",".",2,".",".",".",".",".","|",".",".",".",".",".",".",0,".",".","|"],[".",".",".",".",".",".",".",".","|",3,".",".",".",3,".",2,".","|",3,".",".",0,".",".",".",".",".","|"],[3,".",".",".",".",".",".",".","|",".",".",".",".",".",".",".",".","|",".",".",".",".",".",".",".",2,3,"|"]],[[3,".",".",1,0,".",".",".",".",".",".",".",0,".",".",".","|",5,5,5,5,3,1,0,".",".",".",".",".",".",".","|"],[".",".",".",".",".",".",3,".",1,".",3,".",".",".",1,".","|",".",".",".",".",".",".",".",".",3,".",1,".",".",".","|"],[".",0,".",".",".",0,".",0,".",0,".",0,".",0,".",0,"|",".",".",".",".",".",".",".",0,".",0,".",0,".",0,"|"],[".",".",2,".",".",".",".",".",".",".",".",".",".",".",".",".","|",".",".",".",".",".",".",".",".",".",".",".",".",2,".","|"],[3,".",".",".",3,".",2,".",0,".",2,".",3,".",0,".","|",".",".",".",".",3,".",3,".",2,".",3,".",".",".","|"],[".",".",".",".",".",".",".",".",".",".",".",".",".",".",".",".","|",1,".",".",".",".",".",".",".",".",".",".",".",".",".","|"]]],"numberofstrings":6,"notes":["E","B","G","D","A","E","B"],"capo":"5","stringnotes":["E4","B3","G3","D3","A2","E2"],"comments":["Stave 1:","Stave 2:","Stave 3:"],"timing":[["W","W","W","W","W","W","W","W","W","W","W","W","W","W","W","W",null,"W","W","W","W","W","W","W","W","W","W","W","W","W","W"],["W","W","W","W","W","W","W","W",null,"W","W","W","W","W","W","W","W",null,"W","W","W","W","W","W","W","W","W"],["W","W","W","W","W","W","W","W","W","W","W","W","W","W","W","W",null,"W","W","W","W","W","W","W","W","W","W","W","W","W","W"]],"timingvisible":false,"tabcounter":32,"stave":2,"totalstaves":3,"instrument":"6guitar","selectedtuning":"6_standard","version":"13"}

Member for

5 years 2 months
Submitted by rockstarguitar on Wed, 2020-12-02 17:32